999
dxflib 2.2.0.0
  0
SECTION
  2
HEADER
  9
$ACADVER
  1
AC1015
  9
$HANDSEED
  5
FFFF
  9
$OBSCOLOR
 70
257
  9
$DIMLIM
 70
0
  9
$DIMLUNIT
 70
4
  9
$DIMTIX
 70
0
  9
$AUNITS
 70
0
  9
$QTEXTMODE
 70
0
  9
$USERR1
 40
0.0
  9
$DIMALTU
 70
2
  9
$UCSORGBOTTOM
 10
0.0
 20
0.0
 30
0.0
  9
$USERR2
 40
0.0
  9
$USERR3
 40
0.0
  9
$USERR4
 40
0.0
  9
$LIMMAX
 10
8.2716666666666665
 20
11.696666666666671
  9
$USERR5
 40
0.0
  9
$PELEVATION
 40
0.0
  9
$DIMALTZ
 70
0
  9
$DIMADEC
 70
0
  9
$JOINSTYLE
280
0
  9
$DIMATFIT
 70
3
  9
$TILEMODE
 70
1
  9
$PEXTMIN
 10
100000000000000000000.0
 20
100000000000000000000.0
 30
100000000000000000000.0
  9
$TDUSRTIMER
 40
0.0000007407
  9
$DWGCODEPAGE
  3
ANSI_1252
  9
$SORTENTS
280
127
  9
$UCSORTHOVIEW
 70
0
  9
$DIMSOXD
 70
0
  9
$DIMTZIN
 70
0
  9
$SPLINETYPE
 70
6
  9
$DIMLFAC
 40
1.0
  9
$DIMSE1
 70
0
  9
$FILLETRAD
 40
4.9999999999999991
  9
$DIMSE2
 70
0
  9
$PSTYLEMODE
290
1
  9
$TEXTSTYLE
  7
Standard
  9
$DIMTSZ
 40
0.0
  9
$PUCSXDIR
 10
1.0
 20
0.0
 30
0.0
  9
$XCLIPFRAME
290
0
  9
$DIMTXSTY
  7
Standard
  9
$PLIMMAX
 10
12.0
 20
9.0
  9
$DIMTM
 40
0.0
  9
$UCSORG
 10
0.0
 20
0.0
 30
0.0
  9
$DIMTP
 40
0.0
  9
$PSLTSCALE
 70
1
  9
$ANGBASE
 50
0.0
  9
$PUCSYDIR
 10
0.0
 20
1.0
 30
0.0
  9
$EXTNAMES
290
1
  9
$DIMASZ
 40
0.18
  9
$PUCSORTHOVIEW
 70
0
  9
$INSBASE
 10
0.0
 20
0.0
 30
0.0
  9
$UNITMODE
 70
0
  9
$MEASUREMENT
 70
1
  9
$INDEXCTL
280
0
  9
$EXTMAX
 10
194.79119719318331
 20
287.11137220545749
 30
0.00000001
  9
$ELEVATION
 40
0.0
  9
$TDCREATE
 40
2456305.52467875
  9
$DIMDEC
 70
2
  9
$CELTYPE
  6
ByLayer
  9
$MENU
  1
.
  9
$ANGDIR
 70
0
  9
$DIMALTTD
 70
2
  9
$TREEDEPTH
 70
3020
  9
$LTSCALE
 40
1.0
  9
$PROXYGRAPHICS
 70
1
  9
$DIMTMOVE
 70
0
  9
$DIMAZIN
 70
0
  9
$TDUPDATE
 40
2456305.52467875
  9
$DIMTOLJ
 70
1
  9
$DIMCEN
 40
0.09
  9
$DIMTVP
 40
0.0
  9
$TRACEWID
 40
0.05
  9
$CMLSTYLE
  2
Standard
  9
$DISPSILH
 70
0
  9
$DIMSTYLE
  2
Standard
  9
$SKETCHINC
 40
0.1
  9
$FILLMODE
 70
1
  9
$PLINEGEN
 70
0
  9
$DIMLWD
 70
-2
  9
$THICKNESS
 40
0.0
  9
$DIMLWE
 70
-2
  9
$CELTSCALE
 40
1.0
  9
$PUCSORG
 10
0.0
 20
0.0
 30
0.0
  9
$DIMALTTZ
 70
0
  9
$INSUNITS
 70
0
  9
$UCSORGBACK
 10
0.0
 20
0.0
 30
0.0
  9
$PLINEWID
 40
0.0
  9
$PEXTMAX
 10
-100000000000000000000.0
 20
-100000000000000000000.0
 30
-100000000000000000000.0
  9
$DIMJUST
 70
0
  9
$DIMASSOC
280
2
  9
$UCSYDIR
 10
0.0
 20
1.0
 30
0.0
  9
$PUCSORGBACK
 10
0.0
 20
0.0
 30
0.0
  9
$PDSIZE
 40
0.0
  9
$PUCSORGBOTTOM
 10
0.0
 20
0.0
 30
0.0
  9
$DIMUPT
 70
0
  9
$DIMTAD
 70
0
  9
$UCSXDIR
 10
1.0
 20
0.0
 30
0.0
  9
$MAXACTVP
 70
64
  9
$DIMSAH
 70
0
  9
$HALOGAP
280
0
  9
$TDUCREATE
 40
2456305.4830120839
  9
$DIMFRAC
 70
0
  9
$USERI1
 70
0
  9
$USERI2
 70
0
  9
$UCSORGRIGHT
 10
0.0
 20
0.0
 30
0.0
  9
$USERI3
 70
0
  9
$CELWEIGHT
370
-1
  9
$LWDISPLAY
290
0
  9
$SKPOLY
 70
0
  9
$USERI4
 70
0
  9
$USERI5
 70
0
  9
$UCSORGTOP
 10
0.0
 20
0.0
 30
0.0
  9
$LIMMIN
 10
0.0
 20
0.0
  9
$ACADMAINTVER
 70
39
  9
$MIRRTEXT
 70
0
  9
$TDUUPDATE
 40
2456305.4830120839
  9
$TEXTSIZE
 40
3.0
  9
$DIMGAP
 40
0.09
  9
$LUPREC
 70
2
  9
$CECOLOR
 62
92
  9
$DIMSD1
 70
0
  9
$DIMSD2
 70
0
  9
$WORLDVIEW
 70
1
  9
$PUCSORGRIGHT
 10
0.0
 20
0.0
 30
0.0
  9
$PLIMCHECK
 70
0
  9
$DIMTFAC
 40
1.0
  9
$CMLJUST
 70
0
  9
$USRTIMER
 70
1
  9
$SURFU
 70
6
  9
$SURFV
 70
6
  9
$DIMASO
 70
1
  9
$DIMDLE
 40
0.0
  9
$EXTMIN
 10
16.14006142620234
 20
26.69766734831822
 30
-0.00000001
  9
$UCSORGLEFT
 10
0.0
 20
0.0
 30
0.0
  9
$OLESTARTUP
290
0
  9
$PUCSORGFRONT
 10
0.0
 20
0.0
 30
0.0
  9
$DIMDLI
 40
0.38
  9
$LUNITS
 70
2
  9
$DIMCLRD
 70
0
  9
$SHADEDIF
 70
70
  9
$DIMCLRE
 70
0
  9
$SPLINESEGS
 70
8
  9
$PUCSORGLEFT
 10
0.0
 20
0.0
 30
0.0
  9
$INTERSECTIONDISPLAY
280
0
  9
$DIMALTRND
 40
0.0
  9
$DIMRND
 40
0.0
  9
$DIMALT
 70
0
  9
$FINGERPRINTGUID
  2
{87777AE3-A211-4717-8EF7-4086154C8B2D}
  9
$DIMCLRT
 70
0
  9
$PUCSORGTOP
 10
0.0
 20
0.0
 30
0.0
  9
$OBSLTYPE
280
0
  9
$DIMTOH
 70
1
  9
$UCSORGFRONT
 10
0.0
 20
0.0
 30
0.0
  9
$VISRETAIN
 70
1
  9
$SHADEDGE
 70
3
  9
$DIMTOL
 70
0
  9
$SURFTYPE
 70
6
  9
$VERSIONGUID
  2
{D07E4202-EF86-41A4-B954-A53A0ED399B8}
  9
$CHAMFERA
 40
4.9999999999999991
  9
$SURFTAB1
 70
6
  9
$CHAMFERB
 40
4.9999999999999991
  9
$SURFTAB2
 70
6
  9
$CHAMFERC
 40
0.0
  9
$AUPREC
 70
2
  9
$CHAMFERD
 40
0.0
  9
$DIMTDEC
 70
4
  9
$PDMODE
 70
0
  9
$SPLFRAME
 70
0
  9
$PLIMMIN
 10
0.0
 20
0.0
  9
$XEDIT
290
1
  9
$DIMDSEP
 70
46
  9
$LIMCHECK
 70
0
  9
$PINSBASE
 10
0.0
 20
0.0
 30
0.0
  9
$ORTHOMODE
 70
0
  9
$PSVPSCALE
 40
0.0
  9
$CLAYER
  8
0
  9
$DIMSHO
 70
1
  9
$DIMTOFL
 70
0
  9
$DIMTXT
 40
0.1574803149606299
  9
$DIMEXE
 40
0.18
  9
$TDINDWG
 40
0.0000007407
  9
$REGENMODE
 70
1
  9
$ATTMODE
 70
1
  9
$CMLSCALE
 40
1.0
  9
$DIMTIH
 70
1
  9
$DIMZIN
 70
0
  9
$CEPSNTYPE
380
0
  9
$HIDETEXT
280
1
  9
$DIMSCALE
 40
1.0
  9
$INTERSECTIONCOLOR
 70
257
  9
$DIMALTD
 70
2
  9
$DIMAUNIT
 70
1
  9
$DIMALTF
 40
25.399999999999999
  9
$DIMEXO
 40
0.0625
  9
$ENDCAPS
280
0
  9
$CLAYER
  8
02-SOLUCION
  0
ENDSEC
  0
SECTION
  2
TABLES
  0
TABLE
  2
VPORT
  5
8
100
AcDbSymbolTable
 70
1
  0
VPORT
  5
30
100
AcDbSymbolTableRecord
100
AcDbViewportTableRecord
  2
*Active
 70
0
 10
0.0
 20
0.0
 11
1.0
 21
1.0
 12
286.30555555555549
 22
148.5
 13
0.0
 23
0.0
 14
10.0
 24
10.0
 15
10.0
 25
10.0
 16
0.0
 26
0.0
 36
1.0
 17
0.0
 27
0.0
 37
0.0
 40
297.0
 41
1.92798353909465
 42
50.0
 43
0.0
 44
0.0
 50
0.0
 51
0.0
 71
0
 72
100
 73
1
 74
3
 75
1
 76
1
 77
0
 78
0
281
0
 65
1
110
0.0
120
0.0
130
0.0
111
1.0
121
0.0
131
0.0
112
0.0
122
1.0
132
0.0
 79
0
146
0.0
  0
ENDTAB
  0
TABLE
  2
LTYPE
  5
5
100
AcDbSymbolTable
 70
21
  0
LTYPE
  5
14
100
AcDbSymbolTableRecord
100
AcDbLinetypeTableRecord
  2
ByBlock
 70
0
  3

 72
65
 73
0
 40
0.0
  0
LTYPE
  5
15
100
AcDbSymbolTableRecord
100
AcDbLinetypeTableRecord
  2
ByLayer
 70
0
  3

 72
65
 73
0
 40
0.0
  0
LTYPE
  5
16
100
AcDbSymbolTableRecord
100
AcDbLinetypeTableRecord
  2
CONTINUOUS
 70
0
  3
Solid line
 72
65
 73
0
 40
0.0
  0
LTYPE
  5
31
100
AcDbSymbolTableRecord
100
AcDbLinetypeTableRecord
  2
DOT
 70
0
  3
Dot . . . . . . . . . . . . . . . . . . . . . .
 72
65
 73
2
 40
6.3499999999999996
 49
0.0
 74
0
 49
-6.3499999999999996
 74
0
  0
LTYPE
  5
32
100
AcDbSymbolTableRecord
100
AcDbLinetypeTableRecord
  2
DOT2
 70
0
  3
Dot (.5x) .....................................
 72
65
 73
2
 40
3.1749999999999998
 49
0.0
 74
0
 49
-3.1749999999999998
 74
0
  0
LTYPE
  5
33
100
AcDbSymbolTableRecord
100
AcDbLinetypeTableRecord
  2
DOTX2
 70
0
  3
Dot (2x) .  .  .  .  .  .  .  .  .  .  .  .  .
 72
65
 73
2
 40
12.699999999999999
 49
0.0
 74
0
 49
-12.699999999999999
 74
0
  0
LTYPE
  5
34
100
AcDbSymbolTableRecord
100
AcDbLinetypeTableRecord
  2
DASHED
 70
0
  3
Dashed __ __ __ __ __ __ __ __ __ __ __ __ __ _
 72
65
 73
2
 40
19.050000000000001
 49
12.699999999999999
 74
0
 49
-6.3499999999999996
 74
0
  0
LTYPE
  5
35
100
AcDbSymbolTableRecord
100
AcDbLinetypeTableRecord
  2
DASHED2
 70
0
  3
Dashed (.5x) _ _ _ _ _ _ _ _ _ _ _ _ _ _ _ _ _
 72
65
 73
2
 40
9.5250000000000004
 49
6.3499999999999996
 74
0
 49
-3.1749999999999998
 74
0
  0
LTYPE
  5
36
100
AcDbSymbolTableRecord
100
AcDbLinetypeTableRecord
  2
DASHEDX2
 70
0
  3
Dashed (2x) ____  ____  ____  ____  ____  ___
 72
65
 73
2
 40
38.100000000000001
 49
25.399999999999999
 74
0
 49
-12.699999999999999
 74
0
  0
LTYPE
  5
37
100
AcDbSymbolTableRecord
100
AcDbLinetypeTableRecord
  2
DASHDOT
 70
0
  3
Dash dot __ . __ . __ . __ . __ . __ . __ . __
 72
65
 73
4
 40
25.399999999999999
 49
12.699999999999999
 74
0
 49
-6.3499999999999996
 74
0
 49
0.0
 74
0
 49
-6.3499999999999996
 74
0
  0
LTYPE
  5
38
100
AcDbSymbolTableRecord
100
AcDbLinetypeTableRecord
  2
DASHDOT2
 70
0
  3
Dash dot (.5x) _._._._._._._._._._._._._._._.
 72
65
 73
4
 40
12.699999999999999
 49
6.3499999999999996
 74
0
 49
-3.1749999999999998
 74
0
 49
0.0
 74
0
 49
-3.1749999999999998
 74
0
  0
LTYPE
  5
39
100
AcDbSymbolTableRecord
100
AcDbLinetypeTableRecord
  2
DASHDOTX2
 70
0
  3
Dash dot (2x) ____  .  ____  .  ____  .  ___
 72
65
 73
4
 40
50.799999999999997
 49
25.399999999999999
 74
0
 49
-12.699999999999999
 74
0
 49
0.0
 74
0
 49
-12.699999999999999
 74
0
  0
LTYPE
  5
3A
100
AcDbSymbolTableRecord
100
AcDbLinetypeTableRecord
  2
DIVIDE
 70
0
  3
Divide ____ . . ____ . . ____ . . ____ . . ____
 72
65
 73
6
 40
31.75
 49
12.699999999999999
 74
0
 49
-6.3499999999999996
 74
0
 49
0.0
 74
0
 49
-6.3499999999999996
 74
0
 49
0.0
 74
0
 49
-6.3499999999999996
 74
0
  0
LTYPE
  5
3B
100
AcDbSymbolTableRecord
100
AcDbLinetypeTableRecord
  2
DIVIDE2
 70
0
  3
Divide (.5x) __..__..__..__..__..__..__..__.._
 72
65
 73
6
 40
15.875
 49
6.3499999999999996
 74
0
 49
-3.1749999999999998
 74
0
 49
0.0
 74
0
 49
-3.1749999999999998
 74
0
 49
0.0
 74
0
 49
-3.1749999999999998
 74
0
  0
LTYPE
  5
3C
100
AcDbSymbolTableRecord
100
AcDbLinetypeTableRecord
  2
DIVIDEX2
 70
0
  3
Divide (2x) ________  .  .  ________  .  .  _
 72
65
 73
6
 40
63.5
 49
25.399999999999999
 74
0
 49
-12.699999999999999
 74
0
 49
0.0
 74
0
 49
-12.699999999999999
 74
0
 49
0.0
 74
0
 49
-12.699999999999999
 74
0
  0
LTYPE
  5
3D
100
AcDbSymbolTableRecord
100
AcDbLinetypeTableRecord
  2
CENTER
 70
0
  3
Center ____ _ ____ _ ____ _ ____ _ ____ _ ____
 72
65
 73
4
 40
50.799999999999997
 49
31.75
 74
0
 49
-6.3499999999999996
 74
0
 49
6.3499999999999996
 74
0
 49
-6.3499999999999996
 74
0
  0
LTYPE
  5
3E
100
AcDbSymbolTableRecord
100
AcDbLinetypeTableRecord
  2
CENTER2
 70
0
  3
Center (.5x) ___ _ ___ _ ___ _ ___ _ ___ _ ___
 72
65
 73
4
 40
28.574999999999999
 49
19.050000000000001
 74
0
 49
-3.1749999999999998
 74
0
 49
3.1749999999999998
 74
0
 49
-3.1749999999999998
 74
0
  0
LTYPE
  5
3F
100
AcDbSymbolTableRecord
100
AcDbLinetypeTableRecord
  2
CENTERX2
 70
0
  3
Center (2x) ________  __  ________  __  _____
 72
65
 73
4
 40
101.59999999999999
 49
63.5
 74
0
 49
-12.699999999999999
 74
0
 49
12.699999999999999
 74
0
 49
-12.699999999999999
 74
0
  0
LTYPE
  5
40
100
AcDbSymbolTableRecord
100
AcDbLinetypeTableRecord
  2
BORDER
 70
0
  3
Border __ __ . __ __ . __ __ . __ __ . __ __ .
 72
65
 73
6
 40
44.450000000000003
 49
12.699999999999999
 74
0
 49
-6.3499999999999996
 74
0
 49
12.699999999999999
 74
0
 49
-6.3499999999999996
 74
0
 49
0.0
 74
0
 49
-6.3499999999999996
 74
0
  0
LTYPE
  5
41
100
AcDbSymbolTableRecord
100
AcDbLinetypeTableRecord
  2
BORDER2
 70
0
  3
Border (.5x) __.__.__.__.__.__.__.__.__.__.__.
 72
65
 73
6
 40
22.225000000000001
 49
6.3499999999999996
 74
0
 49
-3.1749999999999998
 74
0
 49
6.3499999999999996
 74
0
 49
-3.1749999999999998
 74
0
 49
0.0
 74
0
 49
-3.1749999999999998
 74
0
  0
LTYPE
  5
42
100
AcDbSymbolTableRecord
100
AcDbLinetypeTableRecord
  2
BORDERX2
 70
0
  3
Border (2x) ____  ____  .  ____  ____  .  ___
 72
65
 73
6
 40
88.900000000000006
 49
25.399999999999999
 74
0
 49
-12.699999999999999
 74
0
 49
25.399999999999999
 74
0
 49
-12.699999999999999
 74
0
 49
0.0
 74
0
 49
-12.699999999999999
 74
0
  0
ENDTAB
  0
TABLE
  2
LAYER
  5
2
100
AcDbSymbolTable
 70
3
  0
LAYER
  5
10
100
AcDbSymbolTableRecord
100
AcDbLayerTableRecord
  2
0
 70
0
 62
7
420
16777215
  6
CONTINUOUS
370
-3
390
F
  0
LAYER
  5
43
100
AcDbSymbolTableRecord
100
AcDbLayerTableRecord
  2
01-PRÁCTICA
 70
1
 62
-7
420
0
  6
CONTINUOUS
370
-3
390
F
  0
LAYER
  5
44
100
AcDbSymbolTableRecord
100
AcDbLayerTableRecord
  2
02-SOLUCION
 70
1
 62
-7
420
0
  6
CONTINUOUS
370
-3
390
F
  0
ENDTAB
  0
TABLE
  2
STYLE
  5
3
100
AcDbSymbolTable
 70
1
  0
STYLE
  5
11
100
AcDbSymbolTableRecord
100
AcDbTextStyleTableRecord
  2
Standard
 70
0
 40
0.0
 41
0.75
 50
0.0
 71
0
 42
2.5
  3
txt
  4

  0
ENDTAB
  0
TABLE
  2
VIEW
  5
6
100
AcDbSymbolTable
 70
0
  0
ENDTAB
  0
TABLE
  2
UCS
  5
7
100
AcDbSymbolTable
 70
0
  0
ENDTAB
  0
TABLE
  2
APPID
  5
9
100
AcDbSymbolTable
 70
1
  0
APPID
  5
12
100
AcDbSymbolTableRecord
100
AcDbRegAppTableRecord
  2
ACAD
 70
0
  0
ENDTAB
  0
TABLE
  2
DIMSTYLE
  5
A
100
AcDbSymbolTable
 70
1
100
AcDbDimStyleTable
 71
0
  0
DIMSTYLE
105
27
100
AcDbSymbolTableRecord
100
AcDbDimStyleTableRecord
  2
Standard
 41
0.18
 42
0.0625
 43
3.75
 44
0.18
 70
0
 73
0
 74
0
 77
1
 78
8
140
0.1574803149606299
141
2.5
143
0.03937007874016
147
0.09
171
3
172
1
271
2
272
2
274
3
278
44
283
0
284
8
340
11
  0
ENDTAB
  0
TABLE
  2
BLOCK_RECORD
  5
1
100
AcDbSymbolTable
 70
1
  0
BLOCK_RECORD
  5
1F
100
AcDbSymbolTableRecord
100
AcDbBlockTableRecord
  2
*Model_Space
340
22
  0
BLOCK_RECORD
  5
1B
100
AcDbSymbolTableRecord
100
AcDbBlockTableRecord
  2
*Paper_Space
340
1E
  0
BLOCK_RECORD
  5
23
100
AcDbSymbolTableRecord
100
AcDbBlockTableRecord
  2
*Paper_Space0
340
26
  0
BLOCK_RECORD
  5
45
100
AcDbSymbolTableRecord
100
AcDbBlockTableRecord
  2
Mkr_44905
340
0
  0
BLOCK_RECORD
  5
46
100
AcDbSymbolTableRecord
100
AcDbBlockTableRecord
  2
Mkr_449050
340
0
  0
BLOCK_RECORD
  5
47
100
AcDbSymbolTableRecord
100
AcDbBlockTableRecord
  2
Mkr_449051
340
0
  0
BLOCK_RECORD
  5
48
100
AcDbSymbolTableRecord
100
AcDbBlockTableRecord
  2
Mkr_449052
340
0
  0
BLOCK_RECORD
  5
49
100
AcDbSymbolTableRecord
100
AcDbBlockTableRecord
  2
Mkr_449053
340
0
  0
BLOCK_RECORD
  5
4A
100
AcDbSymbolTableRecord
100
AcDbBlockTableRecord
  2
Mkr_449054
340
0
  0
BLOCK_RECORD
  5
4B
100
AcDbSymbolTableRecord
100
AcDbBlockTableRecord
  2
Mkr_449055
340
0
  0
BLOCK_RECORD
  5
4C
100
AcDbSymbolTableRecord
100
AcDbBlockTableRecord
  2
Mkr_449056
340
0
  0
BLOCK_RECORD
  5
4D
100
AcDbSymbolTableRecord
100
AcDbBlockTableRecord
  2
Mkr_449057
340
0
  0
BLOCK_RECORD
  5
4E
100
AcDbSymbolTableRecord
100
AcDbBlockTableRecord
  2
Mkr_449058
340
0
  0
BLOCK_RECORD
  5
4F
100
AcDbSymbolTableRecord
100
AcDbBlockTableRecord
  2
Mkr_449059
340
0
  0
BLOCK_RECORD
  5
50
100
AcDbSymbolTableRecord
100
AcDbBlockTableRecord
  2
Mkr_4490510
340
0
  0
BLOCK_RECORD
  5
51
100
AcDbSymbolTableRecord
100
AcDbBlockTableRecord
  2
Mkr_4490511
340
0
  0
BLOCK_RECORD
  5
52
100
AcDbSymbolTableRecord
100
AcDbBlockTableRecord
  2
Mkr_4490512
340
0
  0
BLOCK_RECORD
  5
53
100
AcDbSymbolTableRecord
100
AcDbBlockTableRecord
  2
Mkr_4490513
340
0
  0
ENDTAB
  0
ENDSEC
  0
SECTION
  2
BLOCKS
  0
BLOCK
  5
20
100
AcDbEntity
  8
0
100
AcDbBlockBegin
  2
*Model_Space
 70
0
 10
0.0
 20
0.0
 30
0.0
  3
*Model_Space
  1

  0
ENDBLK
  5
21
100
AcDbEntity
  8
0
100
AcDbBlockEnd
  0
BLOCK
  5
1C
100
AcDbEntity
 67
1
  8
0
100
AcDbBlockBegin
  2
*Paper_Space
 70
0
 10
0.0
 20
0.0
 30
0.0
  3
*Paper_Space
  1

  0
ENDBLK
  5
1D
100
AcDbEntity
 67
1
  8
0
100
AcDbBlockEnd
  0
BLOCK
  5
24
100
AcDbEntity
  8
0
100
AcDbBlockBegin
  2
*Paper_Space0
 70
0
 10
0.0
 20
0.0
 30
0.0
  3
*Paper_Space0
  1

  0
ENDBLK
  5
25
100
AcDbEntity
  8
0
100
AcDbBlockEnd
  0
BLOCK
  5
54
100
AcDbEntity
  8
0
100
AcDbBlockBegin
  2
Mkr_44905
 70
0
 10
0.0
 20
0.0
 30
0.0
  3
Mkr_44905
  1

  0
LINE
  5
55
100
AcDbEntity
100
AcDbLine
  8
0
 62
0
370
-1
  6
ByBlock
 10
-12.699999999999999
 20
0.0
 30
0.0
 11
12.699999999999999
 21
0.0
 31
0.0
  0
LINE
  5
56
100
AcDbEntity
100
AcDbLine
  8
0
 62
0
370
-1
  6
ByBlock
 10
0.0
 20
-12.699999999999999
 30
0.0
 11
0.0
 21
12.699999999999999
 31
0.0
  0
ENDBLK
  5
57
100
AcDbEntity
  8
0
100
AcDbBlockEnd
  0
BLOCK
  5
58
100
AcDbEntity
  8
0
100
AcDbBlockBegin
  2
Mkr_449050
 70
0
 10
0.0
 20
0.0
 30
0.0
  3
Mkr_449050
  1

  0
LINE
  5
59
100
AcDbEntity
100
AcDbLine
  8
0
 62
0
370
-1
  6
ByBlock
 10
-12.699999999999999
 20
0.0
 30
0.0
 11
12.699999999999999
 21
0.0
 31
0.0
  0
LINE
  5
5A
100
AcDbEntity
100
AcDbLine
  8
0
 62
0
370
-1
  6
ByBlock
 10
0.0
 20
-12.699999999999999
 30
0.0
 11
0.0
 21
12.699999999999999
 31
0.0
  0
ENDBLK
  5
5B
100
AcDbEntity
  8
0
100
AcDbBlockEnd
  0
BLOCK
  5
5C
100
AcDbEntity
  8
0
100
AcDbBlockBegin
  2
Mkr_449051
 70
0
 10
0.0
 20
0.0
 30
0.0
  3
Mkr_449051
  1

  0
LINE
  5
5D
100
AcDbEntity
100
AcDbLine
  8
0
 62
0
370
-1
  6
ByBlock
 10
-12.699999999999999
 20
0.0
 30
0.0
 11
12.699999999999999
 21
0.0
 31
0.0
  0
LINE
  5
5E
100
AcDbEntity
100
AcDbLine
  8
0
 62
0
370
-1
  6
ByBlock
 10
0.0
 20
-12.699999999999999
 30
0.0
 11
0.0
 21
12.699999999999999
 31
0.0
  0
ENDBLK
  5
5F
100
AcDbEntity
  8
0
100
AcDbBlockEnd
  0
BLOCK
  5
60
100
AcDbEntity
  8
0
100
AcDbBlockBegin
  2
Mkr_449052
 70
0
 10
0.0
 20
0.0
 30
0.0
  3
Mkr_449052
  1

  0
LINE
  5
61
100
AcDbEntity
100
AcDbLine
  8
0
 62
0
370
-1
  6
ByBlock
 10
-12.699999999999999
 20
0.0
 30
0.0
 11
12.699999999999999
 21
0.0
 31
0.0
  0
LINE
  5
62
100
AcDbEntity
100
AcDbLine
  8
0
 62
0
370
-1
  6
ByBlock
 10
0.0
 20
-12.699999999999999
 30
0.0
 11
0.0
 21
12.699999999999999
 31
0.0
  0
ENDBLK
  5
63
100
AcDbEntity
  8
0
100
AcDbBlockEnd
  0
BLOCK
  5
64
100
AcDbEntity
  8
0
100
AcDbBlockBegin
  2
Mkr_449053
 70
0
 10
0.0
 20
0.0
 30
0.0
  3
Mkr_449053
  1

  0
LINE
  5
65
100
AcDbEntity
100
AcDbLine
  8
0
 62
0
370
-1
  6
ByBlock
 10
-12.699999999999999
 20
0.0
 30
0.0
 11
12.699999999999999
 21
0.0
 31
0.0
  0
LINE
  5
66
100
AcDbEntity
100
AcDbLine
  8
0
 62
0
370
-1
  6
ByBlock
 10
0.0
 20
-12.699999999999999
 30
0.0
 11
0.0
 21
12.699999999999999
 31
0.0
  0
ENDBLK
  5
67
100
AcDbEntity
  8
0
100
AcDbBlockEnd
  0
BLOCK
  5
68
100
AcDbEntity
  8
0
100
AcDbBlockBegin
  2
Mkr_449054
 70
0
 10
0.0
 20
0.0
 30
0.0
  3
Mkr_449054
  1

  0
LINE
  5
69
100
AcDbEntity
100
AcDbLine
  8
0
 62
0
370
-1
  6
ByBlock
 10
-12.699999999999999
 20
0.0
 30
0.0
 11
12.699999999999999
 21
0.0
 31
0.0
  0
LINE
  5
6A
100
AcDbEntity
100
AcDbLine
  8
0
 62
0
370
-1
  6
ByBlock
 10
0.0
 20
-12.699999999999999
 30
0.0
 11
0.0
 21
12.699999999999999
 31
0.0
  0
ENDBLK
  5
6B
100
AcDbEntity
  8
0
100
AcDbBlockEnd
  0
BLOCK
  5
6C
100
AcDbEntity
  8
0
100
AcDbBlockBegin
  2
Mkr_449055
 70
0
 10
0.0
 20
0.0
 30
0.0
  3
Mkr_449055
  1

  0
LINE
  5
6D
100
AcDbEntity
100
AcDbLine
  8
0
 62
0
370
-1
  6
ByBlock
 10
-12.699999999999999
 20
0.0
 30
0.0
 11
12.699999999999999
 21
0.0
 31
0.0
  0
LINE
  5
6E
100
AcDbEntity
100
AcDbLine
  8
0
 62
0
370
-1
  6
ByBlock
 10
0.0
 20
-12.699999999999999
 30
0.0
 11
0.0
 21
12.699999999999999
 31
0.0
  0
ENDBLK
  5
6F
100
AcDbEntity
  8
0
100
AcDbBlockEnd
  0
BLOCK
  5
70
100
AcDbEntity
  8
0
100
AcDbBlockBegin
  2
Mkr_449056
 70
0
 10
0.0
 20
0.0
 30
0.0
  3
Mkr_449056
  1

  0
LINE
  5
71
100
AcDbEntity
100
AcDbLine
  8
0
 62
0
370
-1
  6
ByBlock
 10
-12.699999999999999
 20
0.0
 30
0.0
 11
12.699999999999999
 21
0.0
 31
0.0
  0
LINE
  5
72
100
AcDbEntity
100
AcDbLine
  8
0
 62
0
370
-1
  6
ByBlock
 10
0.0
 20
-12.699999999999999
 30
0.0
 11
0.0
 21
12.699999999999999
 31
0.0
  0
ENDBLK
  5
73
100
AcDbEntity
  8
0
100
AcDbBlockEnd
  0
BLOCK
  5
74
100
AcDbEntity
  8
0
100
AcDbBlockBegin
  2
Mkr_449057
 70
0
 10
0.0
 20
0.0
 30
0.0
  3
Mkr_449057
  1

  0
LINE
  5
75
100
AcDbEntity
100
AcDbLine
  8
0
 62
0
370
-1
  6
ByBlock
 10
-12.699999999999999
 20
0.0
 30
0.0
 11
12.699999999999999
 21
0.0
 31
0.0
  0
LINE
  5
76
100
AcDbEntity
100
AcDbLine
  8
0
 62
0
370
-1
  6
ByBlock
 10
0.0
 20
-12.699999999999999
 30
0.0
 11
0.0
 21
12.699999999999999
 31
0.0
  0
ENDBLK
  5
77
100
AcDbEntity
  8
0
100
AcDbBlockEnd
  0
BLOCK
  5
78
100
AcDbEntity
  8
0
100
AcDbBlockBegin
  2
Mkr_449058
 70
0
 10
0.0
 20
0.0
 30
0.0
  3
Mkr_449058
  1

  0
LINE
  5
79
100
AcDbEntity
100
AcDbLine
  8
0
 62
0
370
-1
  6
ByBlock
 10
-12.699999999999999
 20
0.0
 30
0.0
 11
12.699999999999999
 21
0.0
 31
0.0
  0
LINE
  5
7A
100
AcDbEntity
100
AcDbLine
  8
0
 62
0
370
-1
  6
ByBlock
 10
0.0
 20
-12.699999999999999
 30
0.0
 11
0.0
 21
12.699999999999999
 31
0.0
  0
ENDBLK
  5
7B
100
AcDbEntity
  8
0
100
AcDbBlockEnd
  0
BLOCK
  5
7C
100
AcDbEntity
  8
0
100
AcDbBlockBegin
  2
Mkr_449059
 70
0
 10
0.0
 20
0.0
 30
0.0
  3
Mkr_449059
  1

  0
LINE
  5
7D
100
AcDbEntity
100
AcDbLine
  8
0
 62
0
370
-1
  6
ByBlock
 10
-12.699999999999999
 20
0.0
 30
0.0
 11
12.699999999999999
 21
0.0
 31
0.0
  0
LINE
  5
7E
100
AcDbEntity
100
AcDbLine
  8
0
 62
0
370
-1
  6
ByBlock
 10
0.0
 20
-12.699999999999999
 30
0.0
 11
0.0
 21
12.699999999999999
 31
0.0
  0
ENDBLK
  5
7F
100
AcDbEntity
  8
0
100
AcDbBlockEnd
  0
BLOCK
  5
80
100
AcDbEntity
  8
0
100
AcDbBlockBegin
  2
Mkr_4490510
 70
0
 10
0.0
 20
0.0
 30
0.0
  3
Mkr_4490510
  1

  0
LINE
  5
81
100
AcDbEntity
100
AcDbLine
  8
0
 62
0
370
-1
  6
ByBlock
 10
-12.699999999999999
 20
0.0
 30
0.0
 11
12.699999999999999
 21
0.0
 31
0.0
  0
LINE
  5
82
100
AcDbEntity
100
AcDbLine
  8
0
 62
0
370
-1
  6
ByBlock
 10
0.0
 20
-12.699999999999999
 30
0.0
 11
0.0
 21
12.699999999999999
 31
0.0
  0
ENDBLK
  5
83
100
AcDbEntity
  8
0
100
AcDbBlockEnd
  0
BLOCK
  5
84
100
AcDbEntity
  8
0
100
AcDbBlockBegin
  2
Mkr_4490511
 70
0
 10
0.0
 20
0.0
 30
0.0
  3
Mkr_4490511
  1

  0
LINE
  5
85
100
AcDbEntity
100
AcDbLine
  8
0
 62
0
370
-1
  6
ByBlock
 10
-12.699999999999999
 20
0.0
 30
0.0
 11
12.699999999999999
 21
0.0
 31
0.0
  0
LINE
  5
86
100
AcDbEntity
100
AcDbLine
  8
0
 62
0
370
-1
  6
ByBlock
 10
0.0
 20
-12.699999999999999
 30
0.0
 11
0.0
 21
12.699999999999999
 31
0.0
  0
ENDBLK
  5
87
100
AcDbEntity
  8
0
100
AcDbBlockEnd
  0
BLOCK
  5
88
100
AcDbEntity
  8
0
100
AcDbBlockBegin
  2
Mkr_4490512
 70
0
 10
0.0
 20
0.0
 30
0.0
  3
Mkr_4490512
  1

  0
LINE
  5
89
100
AcDbEntity
100
AcDbLine
  8
0
 62
0
370
-1
  6
ByBlock
 10
-12.699999999999999
 20
0.0
 30
0.0
 11
12.699999999999999
 21
0.0
 31
0.0
  0
LINE
  5
8A
100
AcDbEntity
100
AcDbLine
  8
0
 62
0
370
-1
  6
ByBlock
 10
0.0
 20
-12.699999999999999
 30
0.0
 11
0.0
 21
12.699999999999999
 31
0.0
  0
ENDBLK
  5
8B
100
AcDbEntity
  8
0
100
AcDbBlockEnd
  0
BLOCK
  5
8C
100
AcDbEntity
  8
0
100
AcDbBlockBegin
  2
Mkr_4490513
 70
0
 10
0.0
 20
0.0
 30
0.0
  3
Mkr_4490513
  1

  0
LINE
  5
8D
100
AcDbEntity
100
AcDbLine
  8
0
 62
0
370
-1
  6
ByBlock
 10
-12.699999999999999
 20
0.0
 30
0.0
 11
12.699999999999999
 21
0.0
 31
0.0
  0
LINE
  5
8E
100
AcDbEntity
100
AcDbLine
  8
0
 62
0
370
-1
  6
ByBlock
 10
0.0
 20
-12.699999999999999
 30
0.0
 11
0.0
 21
12.699999999999999
 31
0.0
  0
ENDBLK
  5
8F
100
AcDbEntity
  8
0
100
AcDbBlockEnd
  0
ENDSEC
  0
SECTION
  2
ENTITIES
  0
LINE
  5
90
100
AcDbEntity
100
AcDbLine
  8
02-SOLUCION
 62
1
420
16711680
370
-1
  6
CONTINUOUS
 10
56.993187192190362
 20
255.75701973075789
 30
0.0
 11
159.9521110457776
 21
181.03326083830461
 31
0.0
  0
LINE
  5
91
100
AcDbEntity
100
AcDbLine
  8
02-SOLUCION
 62
7
420
16777215
370
-1
  6
DASHED2
 10
75.920826631886371
 20
242.0200427601516
 30
0.0
 11
75.920826631886371
 21
218.39514028453129
 31
0.0
  0
LINE
  5
92
100
AcDbEntity
100
AcDbLine
  8
02-SOLUCION
 62
7
420
16777215
370
-1
  6
DASHED2
 10
141.02447160608159
 20
218.39514028453129
 30
0.0
 11
141.02447160608159
 21
194.77023780891079
 31
0.0
  0
LINE
  5
93
100
AcDbEntity
100
AcDbLine
  8
02-SOLUCION
 62
7
420
16777215
370
-1
  6
DASHED2
 10
85.94956681234595
 20
234.7415560084313
 30
0.0
 11
85.94956681234595
 21
218.39514028453129
 31
0.0
  0
LINE
  5
94
100
AcDbEntity
100
AcDbLine
  8
02-SOLUCION
 62
142
420
31909
370
-1
  6
DASHED2
 10
63.426484505707897
 20
234.7415560084313
 30
0.0
 11
85.94956681234595
 21
218.39514028453129
 31
0.0
  0
MTEXT
  5
95
100
AcDbEntity
100
AcDbMText
  8
02-SOLUCION
 62
1
420
16711680
370
-1
  6
CONTINUOUS
 10
62.496067589925197
 20
260.24403731016139
 30
0.0
 40
3.2116568842837818
 41
100.0
 71
5
 72
2
  1
P'\~=\~P
  7
ARIAL
 50
0.0
 73
0
 44
1.0
  0
MTEXT
  5
96
100
AcDbEntity
100
AcDbMText
  8
02-SOLUCION
 62
92
420
42240
370
-1
  6
CONTINUOUS
 10
77.32664794140662
 20
244.4898771654741
 30
0.0
 40
3.2116568842837818
 41
100.0
 71
5
 72
2
  1
v'
  7
ARIAL
 50
0.0
 73
0
 44
1.0
  0
MTEXT
  5
97
100
AcDbEntity
100
AcDbMText
  8
02-SOLUCION
 62
142
420
31909
370
-1
  6
CONTINUOUS
 10
73.260994258564608
 20
220.4138086361956
 30
0.0
 40
3.2116568842837818
 41
100.0
 71
5
 72
2
  1
v
  7
ARIAL
 50
0.0
 73
0
 44
1.0
  0
MTEXT
  5
98
100
AcDbEntity
100
AcDbMText
  8
02-SOLUCION
 62
92
420
42240
370
-1
  6
CONTINUOUS
 10
143.23301760472069
 20
220.5675933028904
 30
0.0
 40
3.2116568842837818
 41
100.0
 71
5
 72
2
  1
h'
  7
ARIAL
 50
0.0
 73
0
 44
1.0
  0
MTEXT
  5
99
100
AcDbEntity
100
AcDbMText
  8
02-SOLUCION
 62
142
420
31909
370
-1
  6
CONTINUOUS
 10
145.69357227183829
 20
195.8082619650198
 30
0.0
 40
3.2116568842837818
 41
100.0
 71
5
 72
2
  1
h
  7
ARIAL
 50
0.0
 73
0
 44
1.0
  0
MTEXT
  5
9A
100
AcDbEntity
100
AcDbMText
  8
02-SOLUCION
 62
92
420
42240
370
-1
  6
CONTINUOUS
 10
82.516627768549583
 20
232.77274774423691
 30
0.0
 40
3.2116568842837818
 41
100.0
 71
5
 72
2
  1
v1'
  7
ARIAL
 50
0.0
 73
0
 44
1.0
  0
MTEXT
  5
9B
100
AcDbEntity
100
AcDbMText
  8
02-SOLUCION
 62
142
420
31909
370
-1
  6
CONTINUOUS
 10
89.254599594828861
 20
220.4138086361956
 30
0.0
 40
3.2116568842837818
 41
100.0
 71
5
 72
2
  1
v1
  7
ARIAL
 50
0.0
 73
0
 44
1.0
  0
LINE
  5
9C
100
AcDbEntity
100
AcDbLine
  8
02-SOLUCION
 62
92
420
42240
370
-1
  6
DASHED2
 10
91.561369595251534
 20
234.7415560084313
 30
0.0
 11
63.426484505707897
 21
234.7415560084313
 31
0.0
  0
MTEXT
  5
9D
100
AcDbEntity
100
AcDbMText
  8
02-SOLUCION
 62
1
420
16711680
370
-1
  6
CONTINUOUS
 10
56.79631982857277
 20
234.80645032313049
 30
0.0
 40
3.2116568842837818
 41
100.0
 71
5
 72
2
  1
b'=b
  7
ARIAL
 50
0.0
 73
0
 44
1.0
  0
LINE
  5
9E
100
AcDbEntity
100
AcDbLine
  8
02-SOLUCION
 62
7
420
16777215
370
-1
  6
DASHED2
 10
120.9669912451625
 20
234.7415560084313
 30
0.0
 11
120.9669912451625
 21
202.04872456063131
 31
0.0
  0
MTEXT
  5
9F
100
AcDbEntity
100
AcDbMText
  8
02-SOLUCION
 62
92
420
42240
370
-1
  6
CONTINUOUS
 10
121.65602546310571
 20
238.82307176725661
 30
0.0
 40
3.2116568842837818
 41
100.0
 71
5
 72
2
  1
c'
  7
ARIAL
 50
0.0
 73
0
 44
1.0
  0
MTEXT
  5
A0
100
AcDbEntity
100
AcDbMText
  8
02-SOLUCION
 62
142
420
31909
370
-1
  6
DASHED
 10
122.30398463534949
 20
198.97358267426009
 30
0.0
 40
2.7999999999999989
 41
100.0
 71
5
 72
2
  1
c
  7
ARIAL
 50
0.0
 73
0
 44
1.0
  0
LINE
  5
A1
100
AcDbEntity
100
AcDbLine
  8
02-SOLUCION
 62
7
420
16777215
370
-1
  6
CONTINUOUS
 10
75.920826631886371
 20
218.39514028453129
 30
0.0
 11
141.02447160608159
 21
242.0200427601516
 31
0.0
  0
LINE
  5
A2
100
AcDbEntity
100
AcDbLine
  8
02-SOLUCION
 62
7
420
16777215
370
-1
  6
DASHED2
 10
108.47264911898399
 20
230.20759152234149
 30
0.0
 11
108.47264911898399
 21
206.5826890467211
 31
0.0
  0
MTEXT
  5
A3
100
AcDbEntity
100
AcDbMText
  8
02-SOLUCION
 62
92
420
42240
370
-1
  6
CONTINUOUS
 10
110.96469912108221
 20
226.3498577015626
 30
0.0
 40
3.2116568842837818
 41
100.0
 71
5
 72
2
  1
d'
  7
ARIAL
 50
0.0
 73
0
 44
1.0
  0
MTEXT
  5
A4
100
AcDbEntity
100
AcDbMText
  8
02-SOLUCION
 62
142
420
31909
370
-1
  6
CONTINUOUS
 10
111.1266889141431
 20
210.63684777464931
 30
0.0
 40
3.2116568842837818
 41
100.0
 71
5
 72
2
  1
d
  7
ARIAL
 50
0.0
 73
0
 44
1.0
  0
LINE
  5
A5
100
AcDbEntity
100
AcDbLine
  8
02-SOLUCION
 62
94
420
32512
370
-1
  6
CONTINUOUS
 10
59.251097453507953
 20
26.69766735831822
 30
0.0
 11
130.78942996270101
 21
26.69766735831822
 31
0.0
  0
LINE
  5
A6
100
AcDbEntity
100
AcDbLine
  8
02-SOLUCION
 62
94
420
32512
370
-1
  6
CONTINUOUS
 10
59.251097453507953
 20
120.3225050847077
 30
0.0
 11
130.78942996270101
 21
120.3225050847077
 31
0.0
  0
MTEXT
  5
A7
100
AcDbEntity
100
AcDbMText
  8
02-SOLUCION
 62
94
420
32512
370
-1
  6
CONTINUOUS
 10
64.021967750545031
 20
123.9115684258403
 30
0.0
 40
3.2116568842837818
 41
100.0
 71
5
 72
2
  1
Q'
  7
ARIAL
 50
0.0
 73
0
 44
1.0
  0
MTEXT
  5
A8
100
AcDbEntity
100
AcDbMText
  8
02-SOLUCION
 62
94
420
32512
370
-1
  6
CONTINUOUS
 10
64.021967750545031
 20
30.59652431012433
 30
0.0
 40
3.2116568842837818
 41
100.0
 71
5
 72
2
  1
Q
  7
ARIAL
 50
0.0
 73
0
 44
1.0
  0
ARC
  5
A9
100
AcDbEntity
  8
02-SOLUCION
 62
7
420
16777215
370
-1
  6
DASHED2
100
AcDbCircle
 10
130.78942996270101
 20
73.510086221513006
 30
0.0
 40
46.812418863194793
100
AcDbArc
 50
270.0
 51
0.0
  0
LINE
  5
AA
100
AcDbEntity
100
AcDbLine
  8
02-SOLUCION
 62
40
420
16760576
370
-1
  6
CONTINUOUS
 10
130.78942996270101
 20
120.3225050847077
 30
0.0
 11
177.60184882589579
 21
73.510086221512992
 31
0.0
  0
LINE
  5
AB
100
AcDbEntity
100
AcDbLine
  8
02-SOLUCION
 62
7
420
16777215
370
-1
  6
DASHED2
 10
142.3759612996468
 20
108.735973747762
 30
0.0
 11
142.3759612996468
 21
73.510086221513006
 31
0.0
  0
ARC
  5
AC
100
AcDbEntity
  8
02-SOLUCION
 62
7
420
16777215
370
-1
  6
DASHED2
100
AcDbCircle
 10
130.78942996270101
 20
73.510086221513006
 30
0.0
 40
11.586531336945781
100
AcDbArc
 50
270.0
 51
0.0
  0
LINE
  5
AD
100
AcDbEntity
100
AcDbLine
  8
02-SOLUCION
 62
7
420
16777215
370
-1
  6
CONTINUOUS
 10
130.78942996270101
 20
120.3225050847077
 30
0.0
 11
130.78942996270101
 21
26.69766735831822
 31
0.0
  0
LINE
  5
AE
100
AcDbEntity
100
AcDbLine
  8
02-SOLUCION
 62
7
420
16777215
370
-1
  6
DASHED2
 10
130.78942996270101
 20
108.735973747762
 30
0.0
 11
142.3759612996468
 21
108.735973747762
 31
0.0
  0
LINE
  5
AF
100
AcDbEntity
100
AcDbLine
  8
02-SOLUCION
 62
7
420
16777215
370
-1
  6
DASHED2
 10
160.46565028044759
 20
90.646284766961188
 30
0.0
 11
96.452689266519826
 21
90.646284766961188
 31
0.0
  0
LINE
  5
B0
100
AcDbEntity
100
AcDbLine
  8
02-SOLUCION
 62
7
420
16777215
370
-1
  6
DASHED2
 10
160.46565028044759
 20
90.646284766961188
 30
0.0
 11
160.46565028044759
 21
73.510086221513006
 31
0.0
  0
ARC
  5
B1
100
AcDbEntity
  8
02-SOLUCION
 62
7
420
16777215
370
-1
  6
DASHED2
100
AcDbCircle
 10
130.7150725636329
 20
73.51509311840465
 30
0.0
 40
29.750578138134479
100
AcDbArc
 50
270.14320291720082
 51
359.99035736178399
  0
LINE
  5
B2
100
AcDbEntity
100
AcDbLine
  8
02-SOLUCION
 62
7
420
16777215
370
-1
  6
DASHED2
 10
130.78942996270101
 20
43.764607903362368
 30
0.0
 11
96.452689266519826
 21
43.764607903362368
 31
0.0
  0
MTEXT
  5
B3
100
AcDbEntity
100
AcDbMText
  8
02-SOLUCION
 62
40
420
16760576
370
-1
  6
CONTINUOUS
 10
175.14953845018101
 20
84.997261564901379
 30
0.0
 40
3.2116568842837818
 41
100.0
 71
5
 72
2
  1
Q''
  7
ARIAL
 50
0.0
 73
0
 44
1.0
  0
MTEXT
  5
B4
100
AcDbEntity
100
AcDbMText
  8
02-SOLUCION
 62
40
420
16760576
370
-1
  6
CONTINUOUS
 10
150.89163997546959
 20
111.0043119304018
 30
0.0
 40
3.2116568842837818
 41
100.0
 71
5
 72
2
  1
a''
  7
ARIAL
 50
0.0
 73
0
 44
1.0
  0
MTEXT
  5
B5
100
AcDbEntity
100
AcDbMText
  8
02-SOLUCION
 62
40
420
16760576
370
-1
  6
CONTINUOUS
 10
165.77425547230681
 20
93.235883504533703
 30
0.0
 40
3.2116568842837818
 41
100.0
 71
5
 72
2
  1
b''
  7
ARIAL
 50
0.0
 73
0
 44
1.0
  0
LINE
  5
B6
100
AcDbEntity
100
AcDbLine
  8
02-SOLUCION
 62
7
420
16777215
370
-1
  6
CONTINUOUS
 10
130.78942996270101
 20
73.510086221513006
 30
0.0
 11
154.19563939429841
 21
96.916295653110367
 31
0.0
  0
LINE
  5
B7
100
AcDbEntity
100
AcDbLine
  8
02-SOLUCION
 62
7
420
16777215
370
-1
  6
DASHED2
 10
154.19563939429841
 20
96.916295653110367
 30
0.0
 11
96.452689266519826
 21
96.916295653110367
 31
0.0
  0
LINE
  5
B8
100
AcDbEntity
100
AcDbLine
  8
02-SOLUCION
 62
7
420
16777215
370
-1
  6
DASHED2
 10
154.19563939429841
 20
96.916295653110367
 30
0.0
 11
154.19563939429841
 21
73.510086221513006
 31
0.0
  0
ARC
  5
B9
100
AcDbEntity
  8
02-SOLUCION
 62
7
420
16777215
370
-1
  6
DASHED2
100
AcDbCircle
 10
130.78942996270101
 20
73.510086221513006
 30
0.0
 40
23.406209431597372
100
AcDbArc
 50
270.0
 51
0.0
  0
LINE
  5
BA
100
AcDbEntity
100
AcDbLine
  8
02-SOLUCION
 62
7
420
16777215
370
-1
  6
DASHED2
 10
130.78942996270101
 20
50.103876789915631
 30
0.0
 11
96.452689266519826
 21
50.103876789915631
 31
0.0
  0
MTEXT
  5
BB
100
AcDbEntity
100
AcDbMText
  8
02-SOLUCION
 62
92
420
42240
370
-1
  6
CONTINUOUS
 10
100.5716915283827
 20
99.816714249456993
 30
0.0
 40
3.2116568842837818
 41
100.0
 71
5
 72
2
  1
c'
  7
ARIAL
 50
0.0
 73
0
 44
1.0
  0
MTEXT
  5
BC
100
AcDbEntity
100
AcDbMText
  8
02-SOLUCION
 62
40
420
16760576
370
-1
  6
CONTINUOUS
 10
158.68829120054781
 20
99.380883931833353
 30
0.0
 40
3.2116568842837818
 41
100.0
 71
5
 72
2
  1
c''
  7
ARIAL
 50
0.0
 73
0
 44
1.0
  0
MTEXT
  5
BD
100
AcDbEntity
100
AcDbMText
  8
02-SOLUCION
 62
142
420
31909
370
-1
  6
CONTINUOUS
 10
100.2905142987607
 20
53.151645277267868
 30
0.0
 40
3.2116568842837818
 41
100.0
 71
5
 72
2
  1
c
  7
ARIAL
 50
0.0
 73
0
 44
1.0
  0
MTEXT
  5
BE
100
AcDbEntity
100
AcDbMText
  8
02-SOLUCION
 62
40
420
16760576
370
-1
  6
CONTINUOUS
 10
158.4075134352114
 20
111.0043119304018
 30
0.0
 40
3.2116568842837818
 41
100.0
 71
5
 72
2
  1
=\~t''
  7
ARIAL
 50
0.0
 73
0
 44
1.0
  0
MTEXT
  5
BF
100
AcDbEntity
100
AcDbMText
  8
02-SOLUCION
 62
40
420
16760576
370
-1
  6
CONTINUOUS
 10
183.29780682888159
 20
84.997261564901379
 30
0.0
 40
3.2116568842837818
 41
100.0
 71
5
 72
2
  1
=\~s''
  7
ARIAL
 50
0.0
 73
0
 44
1.0
  0
LINE
  5
C0
100
AcDbEntity
100
AcDbLine
  8
02-SOLUCION
 62
94
420
32512
370
-1
  6
CONTINUOUS
 10
75.920826631886371
 20
242.0200427601516
 30
0.0
 11
84.613012104652114
 21
238.8658102409818
 31
0.0
  0
LINE
  5
C1
100
AcDbEntity
100
AcDbLine
  8
02-SOLUCION
 62
94
420
32512
370
-1
  6
CONTINUOUS
 10
129.16168093480849
 20
222.69992648826241
 30
0.0
 11
141.02447160608159
 21
218.39514028453129
 31
0.0
  0
LINE
  5
C2
100
AcDbEntity
100
AcDbLine
  8
02-SOLUCION
 62
142
420
31909
370
-1
  6
CONTINUOUS
 10
90.181315638399937
 20
215.32389432414081
 30
0.0
 11
85.949566812345964
 21
218.39514028453129
 31
0.0
  0
LINE
  5
C3
100
AcDbEntity
100
AcDbLine
  8
02-SOLUCION
 62
142
420
31909
370
-1
  6
CONTINUOUS
 10
141.02447160608159
 20
194.77023780891079
 30
0.0
 11
129.8344894925938
 21
198.8308742946233
 31
0.0
  0
LINE
  5
C4
100
AcDbEntity
100
AcDbLine
  8
02-SOLUCION
 62
142
420
31909
370
-1
  6
CONTINUOUS
 10
86.779484836263677
 20
214.45473508607901
 30
0.0
 11
75.920826631886356
 21
218.39514028453129
 31
0.0
  0
INSERT
  5
C5
100
AcDbEntity
100
AcDbBlockReference
  8
02-SOLUCION
 62
1
420
16711680
370
-1
  6
CONTINUOUS
  2
Mkr_44905
 10
63.426484505707897
 20
234.7415560084313
 30
0.0
 41
0.1181102362204724
 42
0.1181102362204724
 43
1.0
 50
45.0
  0
INSERT
  5
C6
100
AcDbEntity
100
AcDbBlockReference
  8
02-SOLUCION
 62
92
420
42240
370
-1
  6
CONTINUOUS
  2
Mkr_449050
 10
120.9669912451625
 20
234.7415560084313
 30
0.0
 41
0.1181102362204724
 42
0.1181102362204724
 43
1.0
 50
45.0
  0
INSERT
  5
C7
100
AcDbEntity
100
AcDbBlockReference
  8
02-SOLUCION
 62
92
420
42240
370
-1
  6
CONTINUOUS
  2
Mkr_449051
 10
120.9669912451625
 20
234.7415560084313
 30
0.0
 41
0.1181102362204724
 42
0.1181102362204724
 43
1.0
 50
45.0
  0
INSERT
  5
C8
100
AcDbEntity
100
AcDbBlockReference
  8
02-SOLUCION
 62
142
420
31909
370
-1
  6
CONTINUOUS
  2
Mkr_449052
 10
120.9669912451625
 20
202.04872456063131
 30
0.0
 41
0.1181102362204724
 42
0.1181102362204724
 43
1.0
 50
45.0
  0
INSERT
  5
C9
100
AcDbEntity
100
AcDbBlockReference
  8
02-SOLUCION
 62
92
420
42240
370
-1
  6
CONTINUOUS
  2
Mkr_449053
 10
108.47264911898399
 20
230.20759152234149
 30
0.0
 41
0.1181102362204724
 42
0.1181102362204724
 43
1.0
 50
45.0
  0
INSERT
  5
CA
100
AcDbEntity
100
AcDbBlockReference
  8
02-SOLUCION
 62
142
420
31909
370
-1
  6
CONTINUOUS
  2
Mkr_449054
 10
108.47264911898399
 20
206.5826890467211
 30
0.0
 41
0.1181102362204724
 42
0.1181102362204724
 43
1.0
 50
45.0
  0
INSERT
  5
CB
100
AcDbEntity
100
AcDbBlockReference
  8
02-SOLUCION
 62
40
420
16760576
370
-1
  6
CONTINUOUS
  2
Mkr_449058
 10
142.3759612996468
 20
108.735973747762
 30
0.0
 41
0.1968503937007874
 42
0.1968503937007874
 43
1.0
  0
INSERT
  5
CC
100
AcDbEntity
100
AcDbBlockReference
  8
02-SOLUCION
 62
40
420
16760576
370
-1
  6
CONTINUOUS
  2
Mkr_449059
 10
160.46565028044759
 20
90.646284766961188
 30
0.0
 41
0.1968503937007874
 42
0.1968503937007874
 43
1.0
  0
INSERT
  5
CD
100
AcDbEntity
100
AcDbBlockReference
  8
02-SOLUCION
 62
40
420
16760576
370
-1
  6
CONTINUOUS
  2
Mkr_4490511
 10
154.19563939429841
 20
96.916295653110367
 30
0.0
 41
0.1968503937007874
 42
0.1968503937007874
 43
1.0
  0
INSERT
  5
CE
100
AcDbEntity
100
AcDbBlockReference
  8
02-SOLUCION
 62
92
420
42240
370
-1
  6
CONTINUOUS
  2
Mkr_4490512
 10
96.452689266519826
 20
96.916295653110367
 30
0.0
 41
0.1968503937007874
 42
0.1968503937007874
 43
1.0
 50
45.0
  0
INSERT
  5
CF
100
AcDbEntity
100
AcDbBlockReference
  8
02-SOLUCION
 62
142
420
31909
370
-1
  6
CONTINUOUS
  2
Mkr_4490513
 10
96.452689266519826
 20
50.103876789915631
 30
0.0
 41
0.1968503937007874
 42
0.1968503937007874
 43
1.0
 50
45.0
  0
LINE
  5
D0
100
AcDbEntity
100
AcDbLine
  8
0
 62
94
420
32512
370
-1
  6
CONTINUOUS
 10
84.613012104652114
 20
238.8658102409818
 30
0.0
 11
129.16168093480849
 21
222.69992648826241
 31
0.0
  0
LINE
  5
D1
100
AcDbEntity
100
AcDbLine
  8
0
 62
7
420
16777215
370
-1
  6
CONTINUOUS
 10
42.727293912725841
 20
218.39514028453129
 30
0.0
 11
168.89952865244581
 21
218.39514028453129
 31
0.0
  0
LINE
  5
D2
100
AcDbEntity
100
AcDbLine
  8
0
 62
7
420
16777215
370
-1
  6
CONTINUOUS
 10
162.97950934883249
 20
215.94689072852771
 30
0.0
 11
168.89952865244581
 21
215.94689072852771
 31
0.0
  0
LINE
  5
D3
100
AcDbEntity
100
AcDbLine
  8
0
 62
7
420
16777215
370
-1
  6
CONTINUOUS
 10
42.727293912725841
 20
215.94689072852771
 30
0.0
 11
48.647313216339143
 21
215.94689072852771
 31
0.0
  0
LINE
  5
D4
100
AcDbEntity
100
AcDbLine
  8
0
 62
7
420
16777215
370
-1
  6
DASHED2
 10
95.978306992805514
 20
234.7415560084313
 30
0.0
 11
95.978306992805514
 21
211.11665353281089
 31
0.0
  0
LINE
  5
D5
100
AcDbEntity
100
AcDbLine
  8
0
 62
142
420
31909
370
-1
  6
CONTINUOUS
 10
86.779484836263677
 20
214.45473508607901
 30
0.0
 11
129.8344894925938
 21
198.8308742946233
 31
0.0
  0
LINE
  5
D6
100
AcDbEntity
100
AcDbLine
  8
0
 62
94
420
32512
370
-1
  6
CONTINUOUS
 10
91.561369595251563
 20
234.7415560084313
 30
0.0
 11
145.2061092916453
 21
234.7415560084313
 31
0.0
  0
LINE
  5
D7
100
AcDbEntity
100
AcDbLine
  8
0
 62
142
420
31909
370
-1
  6
CONTINUOUS
 10
90.181315638399909
 20
215.32389432414081
 30
0.0
 11
138.11058091926151
 21
180.53861560626541
 31
0.0
  0
MTEXT
  5
D8
100
AcDbEntity
100
AcDbMText
  8
0
 62
92
420
42240
370
-1
  6
CONTINUOUS
 10
110.96469912108221
 20
238.33710238807379
 30
0.0
 40
3.2116568842837818
 41
100.0
 71
5
 72
2
  1
m'
  7
ARIAL
 50
0.0
 73
0
 44
1.0
  0
MTEXT
  5
D9
100
AcDbEntity
100
AcDbMText
  8
0
 62
142
420
31909
370
-1
  6
CONTINUOUS
 10
124.00993426786459
 20
185.8122586298546
 30
0.0
 40
3.2116568842837818
 41
100.0
 71
5
 72
2
  1
m
  7
ARIAL
 50
0.0
 73
0
 44
1.0
  0
MTEXT
  5
DA
100
AcDbEntity
100
AcDbMText
  8
0
 62
94
420
32512
370
-1
  6
CONTINUOUS
 10
130.00753626896369
 20
225.48870263712561
 30
0.0
 40
3.2116568842837818
 41
100.0
 71
5
 72
2
  1
r'
  7
ARIAL
 50
0.0
 73
0
 44
1.0
  0
MTEXT
  5
DB
100
AcDbEntity
100
AcDbMText
  8
0
 62
142
420
31909
370
-1
  6
CONTINUOUS
 10
114.0425051892405
 20
207.39705191343009
 30
0.0
 40
3.2116568842837818
 41
100.0
 71
5
 72
2
  1
r
  7
ARIAL
 50
0.0
 73
0
 44
1.0
  0
MTEXT
  5
DC
100
AcDbEntity
100
AcDbMText
  8
0
 62
94
420
32512
370
-1
  6
CONTINUOUS
 10
96.174909596097024
 20
238.56039930618769
 30
0.0
 40
3.2116568842837818
 41
100.0
 71
5
 72
2
  1
a'
  7
ARIAL
 50
0.0
 73
0
 44
1.0
  0
MTEXT
  5
DD
100
AcDbEntity
100
AcDbMText
  8
0
 62
142
420
31909
370
-1
  6
CONTINUOUS
 10
94.329493595758876
 20
209.03374330077679
 30
0.0
 40
3.2116568842837818
 41
100.0
 71
5
 72
2
  1
a
  7
ARIAL
 50
0.0
 73
0
 44
1.0
  0
MTEXT
  5
DE
100
AcDbEntity
100
AcDbMText
  8
0
 62
7
420
16777215
370
-1
  6
CONTINUOUS
 10
16.14006142620234
 20
287.09500112769479
 30
0.0
 40
3.0
 41
100.0
 71
1
 72
2
  1
Dadas\~las\~proyecciones\~di\U+00e9dricas\~de\~las\~rectas\~M\~y\~R\~que\~se\~cortan\~en\~el\~punto\~A,\~determina:
  7
ARIAL
 50
0.0
 73
0
 44
1.0
  0
MTEXT
  5
DF
100
AcDbEntity
100
AcDbMText
  8
0
 62
7
420
16777215
370
-1
  6
CONTINUOUS
 10
16.140061426202351
 20
282.59500112769479
 30
0.0
 40
3.0
 41
100.0
 71
1
 72
2
  1
a)\~\U+00bfQu\U+00e9\~tipo\~de\~rectas\~son\~las\~dadas\~R\~y\~M?
  7
ARIAL
 50
0.0
 73
0
 44
1.0
  0
MTEXT
  5
E0
100
AcDbEntity
100
AcDbMText
  8
0
 62
7
420
16777215
370
-1
  6
CONTINUOUS
 10
16.140061426202351
 20
278.09500112769479
 30
0.0
 40
3.0
 41
100.0
 71
1
 72
2
  1
b)\~Los\~puntos\~intersecci\U+00f3n\~de\~las\~rectas\~dadas\~con\~los\~planos\~bisectores.
  7
ARIAL
 50
0.0
 73
0
 44
1.0
  0
MTEXT
  5
E1
100
AcDbEntity
100
AcDbMText
  8
0
 62
7
420
16777215
370
-1
  6
CONTINUOUS
 10
16.140061426202351
 20
273.59500112769479
 30
0.0
 40
3.0
 41
100.0
 71
1
 72
2
  1
c)\~Las\~trazas\~del\~plano\~P\~definido\~por\~las\~dos\~rectas\~dadas.
  7
ARIAL
 50
0.0
 73
0
 44
1.0
  0
LINE
  5
E2
100
AcDbEntity
100
AcDbLine
  8
0
 62
7
420
16777215
370
-1
  6
CONTINUOUS
 10
42.727293912725841
 20
73.510086221513006
 30
0.0
 11
194.79119719318331
 21
73.510086221513006
 31
0.0
  0
LINE
  5
E3
100
AcDbEntity
100
AcDbLine
  8
0
 62
7
420
16777215
370
-1
  6
CONTINUOUS
 10
42.727293912725841
 20
71.061836665509446
 30
0.0
 11
48.647313216339143
 21
71.061836665509446
 31
0.0
  0
LINE
  5
E4
100
AcDbEntity
100
AcDbLine
  8
0
 62
92
420
42240
370
-1
  6
CONTINUOUS
 10
68.769812738726912
 20
108.735973747762
 30
0.0
 11
130.78942996270101
 21
108.735973747762
 31
0.0
  0
LINE
  5
E5
100
AcDbEntity
100
AcDbLine
  8
0
 62
7
420
16777215
370
-1
  6
CONTINUOUS
 10
188.87117788956999
 20
71.061836665509446
 30
0.0
 11
194.79119719318331
 21
71.061836665509446
 31
0.0
  0
LINE
  5
E6
100
AcDbEntity
100
AcDbLine
  8
0
 62
142
420
31909
370
-1
  6
CONTINUOUS
 10
68.676460727891808
 20
62.047705065716173
 30
0.0
 11
130.78942996270101
 21
62.047705065716187
 31
0.0
  0
LINE
  5
E7
100
AcDbEntity
100
AcDbLine
  8
0
 62
92
420
42240
370
-1
  6
CONTINUOUS
 10
96.452689266519826
 20
108.735973747762
 30
0.0
 11
96.452689266519826
 21
73.510086221513006
 31
0.0
  0
MTEXT
  5
E8
100
AcDbEntity
100
AcDbMText
  8
0
 62
92
420
42240
370
-1
  6
CONTINUOUS
 10
101.4326868387746
 20
111.9606743762117
 30
0.0
 40
3.2116568842837818
 41
100.0
 71
5
 72
2
  1
a'
  7
ARIAL
 50
0.0
 73
0
 44
1.0
  0
MTEXT
  5
E9
100
AcDbEntity
100
AcDbMText
  8
0
 62
142
420
31909
370
-1
  6
CONTINUOUS
 10
102.0302865474452
 20
65.347897099906746
 30
0.0
 40
3.2116568842837818
 41
100.0
 71
5
 72
2
  1
a
  7
ARIAL
 50
0.0
 73
0
 44
1.0
  0
MTEXT
  5
EA
100
AcDbEntity
100
AcDbMText
  8
0
 62
92
420
42240
370
-1
  6
CONTINUOUS
 10
76.333499074610401
 20
111.5622745704314
 30
0.0
 40
3.2116568842837818
 41
100.0
 71
5
 72
2
  1
t'
  7
ARIAL
 50
0.0
 73
0
 44
1.0
  0
MTEXT
  5
EB
100
AcDbEntity
100
AcDbMText
  8
0
 62
142
420
31909
370
-1
  6
CONTINUOUS
 10
77.329498589061345
 20
64.94949729412636
 30
0.0
 40
3.2116568842837818
 41
100.0
 71
5
 72
2
  1
t
  7
ARIAL
 50
0.0
 73
0
 44
1.0
  0
MTEXT
  5
EC
100
AcDbEntity
100
AcDbMText
  8
0
 62
92
420
42240
370
-1
  6
CONTINUOUS
 10
102.0302865474452
 20
93.235883504533703
 30
0.0
 40
3.2116568842837818
 41
100.0
 71
5
 72
2
  1
b'
  7
ARIAL
 50
0.0
 73
0
 44
1.0
  0
MTEXT
  5
ED
100
AcDbEntity
100
AcDbMText
  8
0
 62
142
420
31909
370
-1
  6
CONTINUOUS
 10
101.4326868387746
 20
47.419905839789422
 30
0.0
 40
3.2116568842837818
 41
100.0
 71
5
 72
2
  1
b
  7
ARIAL
 50
0.0
 73
0
 44
1.0
  0
MTEXT
  5
EE
100
AcDbEntity
100
AcDbMText
  8
0
 62
92
420
42240
370
-1
  6
CONTINUOUS
 10
93.35157795825171
 20
83.027760852151914
 30
0.0
 40
3.2116568842837818
 41
100.0
 71
5
 72
2
  1
s'
  7
ARIAL
 50
0.0
 73
0
 44
1.0
  0
MTEXT
  5
EF
100
AcDbEntity
100
AcDbMText
  8
0
 62
7
420
16777215
370
-1
  6
CONTINUOUS
 10
19.664292470978459
 20
148.4752466998342
 30
0.0
 40
3.0
 41
100.0
 71
1
 72
2
  1
Dadas\~las\~proyecciones\~di\U+00e9dricas\~de\~las\~rectas\~T\~y\~S\~que\~se\~cortan\~en\~el\~punto\~A,\~determina:
  7
ARIAL
 50
0.0
 73
0
 44
1.0
  0
MTEXT
  5
F0
100
AcDbEntity
100
AcDbMText
  8
0
 62
7
420
16777215
370
-1
  6
CONTINUOUS
 10
19.66429247097847
 20
143.97524669983409
 30
0.0
 40
3.0
 41
100.0
 71
1
 72
2
  1
a)\~\U+00bfQu\U+00e9\~tipo\~de\~rectas\~son\~las\~dadas\~T\~y\~T?
  7
ARIAL
 50
0.0
 73
0
 44
1.0
  0
MTEXT
  5
F1
100
AcDbEntity
100
AcDbMText
  8
0
 62
7
420
16777215
370
-1
  6
CONTINUOUS
 10
19.66429247097847
 20
139.47524669983409
 30
0.0
 40
3.0
 41
100.0
 71
1
 72
2
  1
b)\~Los\~puntos\~intersecci\U+00f3n\~de\~las\~rectas\~dadas\~con\~los\~planos\~bisectores.
  7
ARIAL
 50
0.0
 73
0
 44
1.0
  0
MTEXT
  5
F2
100
AcDbEntity
100
AcDbMText
  8
0
 62
7
420
16777215
370
-1
  6
CONTINUOUS
 10
19.66429247097847
 20
134.9752466998342
 30
0.0
 40
3.0
 41
100.0
 71
1
 72
2
  1
c)\~Las\~trazas\~del\~plano\~Q\~definido\~por\~las\~dos\~rectas\~dadas.
  7
ARIAL
 50
0.0
 73
0
 44
1.0
  0
MTEXT
  5
F3
100
AcDbEntity
100
AcDbMText
  8
0
 62
142
420
31909
370
-1
  6
CONTINUOUS
 10
93.306544055838259
 20
36.611242377597591
 30
0.0
 40
3.2116568842837818
 41
100.0
 71
5
 72
2
  1
s
  7
ARIAL
 50
0.0
 73
0
 44
1.0
  0
LINE
  5
F4
100
AcDbEntity
100
AcDbLine
  8
0
 62
142
420
31909
370
-1
  6
CONTINUOUS
 10
96.452689266519826
 20
73.510086221513006
 30
0.0
 11
96.452689266519826
 21
31.831229474022681
 31
0.0
  0
INSERT
  5
F5
100
AcDbEntity
100
AcDbBlockReference
  8
0
 62
92
420
42240
370
-1
  6
CONTINUOUS
  2
Mkr_449055
 10
96.452689266519826
 20
108.735973747762
 30
0.0
 41
0.1968503937007874
 42
0.1968503937007874
 43
1.0
 50
45.0
  0
INSERT
  5
F6
100
AcDbEntity
100
AcDbBlockReference
  8
0
 62
142
420
31909
370
-1
  6
CONTINUOUS
  2
Mkr_449056
 10
96.452689266519826
 20
43.764607903362382
 30
0.0
 41
0.1968503937007874
 42
0.1968503937007874
 43
1.0
 50
45.0
  0
INSERT
  5
F7
100
AcDbEntity
100
AcDbBlockReference
  8
0
 62
142
420
31909
370
-1
  6
CONTINUOUS
  2
Mkr_449057
 10
96.452689266519826
 20
62.047705065716173
 30
0.0
 41
0.1968503937007874
 42
0.1968503937007874
 43
1.0
 50
45.0
  0
INSERT
  5
F8
100
AcDbEntity
100
AcDbBlockReference
  8
0
 62
92
420
42240
370
-1
  6
CONTINUOUS
  2
Mkr_4490510
 10
96.452689266519826
 20
90.646284766961188
 30
0.0
 41
0.1968503937007874
 42
0.1968503937007874
 43
1.0
 50
45.0
  0
ENDSEC
  0
SECTION
  2
OBJECTS
  0
DICTIONARY
  5
C
100
AcDbDictionary
280
0
281
1
  3
ACAD_GROUP
350
D
  3
ACAD_LAYOUT
350
1A
  3
ACAD_MLINESTYLE
350
17
  3
ACAD_PLOTSETTINGS
350
19
  3
ACAD_PLOTSTYLENAME
350
E
  3
AcDbVariableDictionary
350
F9
  0
DICTIONARY
  5
D
100
AcDbDictionary
280
0
281
1
  0
ACDBDICTIONARYWDFLT
  5
E
100
AcDbDictionary
281
1
  3
Normal
350
F
100
AcDbDictionaryWithDefault
340
F
  0
ACDBPLACEHOLDER
  5
F
  0
DICTIONARY
  5
17
100
AcDbDictionary
280
0
281
1
  3
Standard
350
18
  0
MLINESTYLE
  5
18
100
AcDbMlineStyle
  2
STANDARD
 70
0
  3

 62
256
 51
90.0
 52
90.0
 71
2
 49
0.5
 62
256
  6
BYLAYER
 49
-0.5
 62
256
  6
BYLAYER
  0
DICTIONARY
  5
19
100
AcDbDictionary
280
0
281
1
  0
DICTIONARY
  5
1A
100
AcDbDictionary
281
1
  3
Layout1
350
1E
  3
Layout2
350
26
  3
Model
350
22
  0
LAYOUT
  5
1E
100
AcDbPlotSettings
  1

  2
C:\Program Files\AutoCAD 2002\plotters\DWF ePlot (optimized for plotting).pc3
  4

  6

 40
0.0
 41
0.0
 42
0.0
 43
0.0
 44
0.0
 45
0.0
 46
0.0
 47
0.0
 48
0.0
 49
0.0
140
0.0
141
0.0
142
1.0
143
1.0
 70
688
 72
0
 73
0
 74
5
  7

 75
16
147
1.0
148
0.0
149
0.0
100
AcDbLayout
  1
Layout1
 70
1
 71
1
 10
0.0
 20
0.0
 11
420.0
 21
297.0
 12
0.0
 22
0.0
 32
0.0
 14
100000000000000000000.0
 24
100000000000000000000.0
 34
100000000000000000000.0
 15
-100000000000000000000.0
 25
-100000000000000000000.0
 35
-100000000000000000000.0
146
0.0
 13
0.0
 23
0.0
 33
0.0
 16
1.0
 26
0.0
 36
0.0
 17
0.0
 27
1.0
 37
0.0
 76
0
330
1B
  0
LAYOUT
  5
22
100
AcDbPlotSettings
  1

  2
C:\Program Files\AutoCAD 2002\plotters\DWF ePlot (optimized for plotting).pc3
  4

  6

 40
0.0
 41
0.0
 42
0.0
 43
0.0
 44
0.0
 45
0.0
 46
0.0
 47
0.0
 48
0.0
 49
0.0
140
0.0
141
0.0
142
1.0
143
1.0
 70
1712
 72
0
 73
0
 74
0
  7

 75
0
147
1.0
148
0.0
149
0.0
100
AcDbLayout
  1
Model
 70
1
 71
0
 10
0.0
 20
0.0
 11
12.0
 21
9.0
 12
0.0
 22
0.0
 32
0.0
 14
0.0
 24
0.0
 34
0.0
 15
0.0
 25
0.0
 35
0.0
146
0.0
 13
0.0
 23
0.0
 33
0.0
 16
1.0
 26
0.0
 36
0.0
 17
0.0
 27
1.0
 37
0.0
 76
0
330
1F
  0
LAYOUT
  5
26
100
AcDbPlotSettings
  1

  2
C:\Program Files\AutoCAD 2002\plotters\DWF ePlot (optimized for plotting).pc3
  4

  6

 40
0.0
 41
0.0
 42
0.0
 43
0.0
 44
0.0
 45
0.0
 46
0.0
 47
0.0
 48
0.0
 49
0.0
140
0.0
141
0.0
142
1.0
143
1.0
 70
688
 72
0
 73
0
 74
5
  7

 75
16
147
1.0
148
0.0
149
0.0
100
AcDbLayout
  1
Layout2
 70
1
 71
2
 10
0.0
 20
0.0
 11
12.0
 21
9.0
 12
0.0
 22
0.0
 32
0.0
 14
0.0
 24
0.0
 34
0.0
 15
0.0
 25
0.0
 35
0.0
146
0.0
 13
0.0
 23
0.0
 33
0.0
 16
1.0
 26
0.0
 36
0.0
 17
0.0
 27
1.0
 37
0.0
 76
0
330
23
  0
DICTIONARY
  5
F9
100
AcDbDictionary
281
1
  3
DIMASSOC
350
FB
  3
HIDETEXT
350
FA
  0
DICTIONARYVAR
  5
FA
100
DictionaryVariables
280
0
  1
2
  0
DICTIONARYVAR
  5
FB
100
DictionaryVariables
280
0
  1
1
  0
ENDSEC
  0
EOF
