999
dxflib 2.2.0.0
  0
SECTION
  2
HEADER
  9
$ACADVER
  1
AC1015
  9
$HANDSEED
  5
FFFF
  9
$OBSCOLOR
 70
257
  9
$DIMLIM
 70
0
  9
$DIMLUNIT
 70
4
  9
$DIMTIX
 70
0
  9
$AUNITS
 70
0
  9
$QTEXTMODE
 70
0
  9
$USERR1
 40
0.0
  9
$DIMALTU
 70
2
  9
$UCSORGBOTTOM
 10
0.0
 20
0.0
 30
0.0
  9
$USERR2
 40
0.0
  9
$USERR3
 40
0.0
  9
$USERR4
 40
0.0
  9
$LIMMAX
 10
7.9573728107558539
 20
11.535186056311129
  9
$USERR5
 40
0.0
  9
$PELEVATION
 40
0.0
  9
$DIMALTZ
 70
0
  9
$DIMADEC
 70
0
  9
$JOINSTYLE
280
0
  9
$DIMATFIT
 70
3
  9
$TILEMODE
 70
1
  9
$PEXTMIN
 10
100000000000000000000.0
 20
100000000000000000000.0
 30
100000000000000000000.0
  9
$TDUSRTIMER
 40
0.0000009028
  9
$DWGCODEPAGE
  3
ANSI_1252
  9
$SORTENTS
280
127
  9
$UCSORTHOVIEW
 70
0
  9
$DIMSOXD
 70
0
  9
$DIMTZIN
 70
0
  9
$SPLINETYPE
 70
6
  9
$DIMLFAC
 40
1.0
  9
$DIMSE1
 70
0
  9
$FILLETRAD
 40
127.0
  9
$DIMSE2
 70
0
  9
$PSTYLEMODE
290
1
  9
$TEXTSTYLE
  7
Standard
  9
$DIMTSZ
 40
0.0
  9
$PUCSXDIR
 10
1.0
 20
0.0
 30
0.0
  9
$XCLIPFRAME
290
0
  9
$DIMTXSTY
  7
Standard
  9
$PLIMMAX
 10
12.0
 20
9.0
  9
$DIMTM
 40
0.0
  9
$UCSORG
 10
0.0
 20
0.0
 30
0.0
  9
$DIMTP
 40
0.0
  9
$PSLTSCALE
 70
1
  9
$ANGBASE
 50
0.0
  9
$PUCSYDIR
 10
0.0
 20
1.0
 30
0.0
  9
$EXTNAMES
290
1
  9
$DIMASZ
 40
0.18
  9
$PUCSORTHOVIEW
 70
0
  9
$INSBASE
 10
0.0
 20
0.0
 30
0.0
  9
$UNITMODE
 70
0
  9
$MEASUREMENT
 70
1
  9
$INDEXCTL
280
0
  9
$EXTMAX
 10
214.66622707180429
 20
287.54643182686777
 30
0.00000001
  9
$ELEVATION
 40
0.0
  9
$TDCREATE
 40
2456305.5727362041
  9
$DIMDEC
 70
2
  9
$CELTYPE
  6
ByLayer
  9
$MENU
  1
.
  9
$ANGDIR
 70
0
  9
$DIMALTTD
 70
2
  9
$TREEDEPTH
 70
3020
  9
$LTSCALE
 40
1.0
  9
$PROXYGRAPHICS
 70
1
  9
$DIMTMOVE
 70
0
  9
$DIMAZIN
 70
0
  9
$TDUPDATE
 40
2456305.5727362041
  9
$DIMTOLJ
 70
1
  9
$DIMCEN
 40
0.09
  9
$DIMTVP
 40
0.0
  9
$TRACEWID
 40
0.05
  9
$CMLSTYLE
  2
Standard
  9
$DISPSILH
 70
0
  9
$DIMSTYLE
  2
Standard
  9
$SKETCHINC
 40
0.1
  9
$FILLMODE
 70
1
  9
$PLINEGEN
 70
0
  9
$DIMLWD
 70
-2
  9
$THICKNESS
 40
0.0
  9
$DIMLWE
 70
-2
  9
$CELTSCALE
 40
1.0
  9
$PUCSORG
 10
0.0
 20
0.0
 30
0.0
  9
$DIMALTTZ
 70
0
  9
$INSUNITS
 70
0
  9
$UCSORGBACK
 10
0.0
 20
0.0
 30
0.0
  9
$PLINEWID
 40
0.0
  9
$PEXTMAX
 10
-100000000000000000000.0
 20
-100000000000000000000.0
 30
-100000000000000000000.0
  9
$DIMJUST
 70
0
  9
$DIMASSOC
280
2
  9
$UCSYDIR
 10
0.0
 20
1.0
 30
0.0
  9
$PUCSORGBACK
 10
0.0
 20
0.0
 30
0.0
  9
$PDSIZE
 40
0.0
  9
$PUCSORGBOTTOM
 10
0.0
 20
0.0
 30
0.0
  9
$DIMUPT
 70
0
  9
$DIMTAD
 70
0
  9
$UCSXDIR
 10
1.0
 20
0.0
 30
0.0
  9
$MAXACTVP
 70
64
  9
$DIMSAH
 70
0
  9
$HALOGAP
280
0
  9
$TDUCREATE
 40
2456305.5310695372
  9
$DIMFRAC
 70
0
  9
$USERI1
 70
0
  9
$USERI2
 70
0
  9
$UCSORGRIGHT
 10
0.0
 20
0.0
 30
0.0
  9
$USERI3
 70
0
  9
$CELWEIGHT
370
-1
  9
$LWDISPLAY
290
0
  9
$SKPOLY
 70
0
  9
$USERI4
 70
0
  9
$USERI5
 70
0
  9
$UCSORGTOP
 10
0.0
 20
0.0
 30
0.0
  9
$LIMMIN
 10
0.0575300421324757
 20
0.3643022057774099
  9
$ACADMAINTVER
 70
39
  9
$MIRRTEXT
 70
0
  9
$TDUUPDATE
 40
2456305.5310695372
  9
$TEXTSIZE
 40
3.8201939642748539
  9
$DIMGAP
 40
0.09
  9
$LUPREC
 70
2
  9
$CECOLOR
 62
6
  9
$DIMSD1
 70
0
  9
$DIMSD2
 70
0
  9
$WORLDVIEW
 70
1
  9
$PUCSORGRIGHT
 10
0.0
 20
0.0
 30
0.0
  9
$PLIMCHECK
 70
0
  9
$DIMTFAC
 40
1.0
  9
$CMLJUST
 70
0
  9
$USRTIMER
 70
1
  9
$SURFU
 70
6
  9
$SURFV
 70
6
  9
$DIMASO
 70
1
  9
$DIMDLE
 40
0.0
  9
$EXTMIN
 10
8.3910671076959868
 20
13.7524403522204
 30
-0.00000001
  9
$UCSORGLEFT
 10
0.0
 20
0.0
 30
0.0
  9
$OLESTARTUP
290
0
  9
$PUCSORGFRONT
 10
0.0
 20
0.0
 30
0.0
  9
$DIMDLI
 40
0.38
  9
$LUNITS
 70
2
  9
$DIMCLRD
 70
0
  9
$SHADEDIF
 70
70
  9
$DIMCLRE
 70
0
  9
$SPLINESEGS
 70
8
  9
$PUCSORGLEFT
 10
0.0
 20
0.0
 30
0.0
  9
$INTERSECTIONDISPLAY
280
0
  9
$DIMALTRND
 40
0.0
  9
$DIMRND
 40
0.0
  9
$DIMALT
 70
0
  9
$FINGERPRINTGUID
  2
{77A07451-30E7-41FB-B1F2-5233A5F27398}
  9
$DIMCLRT
 70
0
  9
$PUCSORGTOP
 10
0.0
 20
0.0
 30
0.0
  9
$OBSLTYPE
280
0
  9
$DIMTOH
 70
1
  9
$UCSORGFRONT
 10
0.0
 20
0.0
 30
0.0
  9
$VISRETAIN
 70
1
  9
$SHADEDGE
 70
3
  9
$DIMTOL
 70
0
  9
$SURFTYPE
 70
6
  9
$VERSIONGUID
  2
{301BB9AD-1A60-436B-8289-2DAE83B9C8BF}
  9
$CHAMFERA
 40
127.0
  9
$SURFTAB1
 70
6
  9
$CHAMFERB
 40
127.0
  9
$SURFTAB2
 70
6
  9
$CHAMFERC
 40
0.0
  9
$AUPREC
 70
2
  9
$CHAMFERD
 40
0.0
  9
$DIMTDEC
 70
4
  9
$PDMODE
 70
0
  9
$SPLFRAME
 70
0
  9
$PLIMMIN
 10
0.0
 20
0.0
  9
$XEDIT
290
1
  9
$DIMDSEP
 70
46
  9
$LIMCHECK
 70
0
  9
$PINSBASE
 10
0.0
 20
0.0
 30
0.0
  9
$ORTHOMODE
 70
0
  9
$PSVPSCALE
 40
0.0
  9
$CLAYER
  8
0
  9
$DIMSHO
 70
1
  9
$DIMTOFL
 70
0
  9
$DIMTXT
 40
0.1504013371761754
  9
$DIMEXE
 40
0.18
  9
$TDINDWG
 40
0.0000009028
  9
$REGENMODE
 70
1
  9
$ATTMODE
 70
1
  9
$CMLSCALE
 40
1.0
  9
$DIMTIH
 70
1
  9
$DIMZIN
 70
0
  9
$CEPSNTYPE
380
0
  9
$HIDETEXT
280
1
  9
$DIMSCALE
 40
1.0
  9
$INTERSECTIONCOLOR
 70
257
  9
$DIMALTD
 70
2
  9
$DIMAUNIT
 70
1
  9
$DIMALTF
 40
25.399999999999999
  9
$DIMEXO
 40
0.0625
  9
$ENDCAPS
280
0
  9
$CLAYER
  8
0
  0
ENDSEC
  0
SECTION
  2
TABLES
  0
TABLE
  2
VPORT
  5
8
100
AcDbSymbolTable
 70
1
  0
VPORT
  5
30
100
AcDbSymbolTableRecord
100
AcDbViewportTableRecord
  2
*Active
 70
0
 10
0.0
 20
0.0
 11
1.0
 21
1.0
 12
286.30555555555549
 22
148.5
 13
0.0
 23
0.0
 14
10.0
 24
10.0
 15
10.0
 25
10.0
 16
0.0
 26
0.0
 36
1.0
 17
0.0
 27
0.0
 37
0.0
 40
297.0
 41
1.92798353909465
 42
50.0
 43
0.0
 44
0.0
 50
0.0
 51
0.0
 71
0
 72
100
 73
1
 74
3
 75
1
 76
1
 77
0
 78
0
281
0
 65
1
110
0.0
120
0.0
130
0.0
111
1.0
121
0.0
131
0.0
112
0.0
122
1.0
132
0.0
 79
0
146
0.0
  0
ENDTAB
  0
TABLE
  2
LTYPE
  5
5
100
AcDbSymbolTable
 70
21
  0
LTYPE
  5
14
100
AcDbSymbolTableRecord
100
AcDbLinetypeTableRecord
  2
ByBlock
 70
0
  3

 72
65
 73
0
 40
0.0
  0
LTYPE
  5
15
100
AcDbSymbolTableRecord
100
AcDbLinetypeTableRecord
  2
ByLayer
 70
0
  3

 72
65
 73
0
 40
0.0
  0
LTYPE
  5
16
100
AcDbSymbolTableRecord
100
AcDbLinetypeTableRecord
  2
CONTINUOUS
 70
0
  3
Solid line
 72
65
 73
0
 40
0.0
  0
LTYPE
  5
31
100
AcDbSymbolTableRecord
100
AcDbLinetypeTableRecord
  2
DOT
 70
0
  3
Dot . . . . . . . . . . . . . . . . . . . . . .
 72
65
 73
2
 40
6.3499999999999996
 49
0.0
 74
0
 49
-6.3499999999999996
 74
0
  0
LTYPE
  5
32
100
AcDbSymbolTableRecord
100
AcDbLinetypeTableRecord
  2
DOT2
 70
0
  3
Dot (.5x) .....................................
 72
65
 73
2
 40
3.1749999999999998
 49
0.0
 74
0
 49
-3.1749999999999998
 74
0
  0
LTYPE
  5
33
100
AcDbSymbolTableRecord
100
AcDbLinetypeTableRecord
  2
DOTX2
 70
0
  3
Dot (2x) .  .  .  .  .  .  .  .  .  .  .  .  .
 72
65
 73
2
 40
12.699999999999999
 49
0.0
 74
0
 49
-12.699999999999999
 74
0
  0
LTYPE
  5
34
100
AcDbSymbolTableRecord
100
AcDbLinetypeTableRecord
  2
DASHED
 70
0
  3
Dashed __ __ __ __ __ __ __ __ __ __ __ __ __ _
 72
65
 73
2
 40
19.050000000000001
 49
12.699999999999999
 74
0
 49
-6.3499999999999996
 74
0
  0
LTYPE
  5
35
100
AcDbSymbolTableRecord
100
AcDbLinetypeTableRecord
  2
DASHED2
 70
0
  3
Dashed (.5x) _ _ _ _ _ _ _ _ _ _ _ _ _ _ _ _ _
 72
65
 73
2
 40
9.5250000000000004
 49
6.3499999999999996
 74
0
 49
-3.1749999999999998
 74
0
  0
LTYPE
  5
36
100
AcDbSymbolTableRecord
100
AcDbLinetypeTableRecord
  2
DASHEDX2
 70
0
  3
Dashed (2x) ____  ____  ____  ____  ____  ___
 72
65
 73
2
 40
38.100000000000001
 49
25.399999999999999
 74
0
 49
-12.699999999999999
 74
0
  0
LTYPE
  5
37
100
AcDbSymbolTableRecord
100
AcDbLinetypeTableRecord
  2
DASHDOT
 70
0
  3
Dash dot __ . __ . __ . __ . __ . __ . __ . __
 72
65
 73
4
 40
25.399999999999999
 49
12.699999999999999
 74
0
 49
-6.3499999999999996
 74
0
 49
0.0
 74
0
 49
-6.3499999999999996
 74
0
  0
LTYPE
  5
38
100
AcDbSymbolTableRecord
100
AcDbLinetypeTableRecord
  2
DASHDOT2
 70
0
  3
Dash dot (.5x) _._._._._._._._._._._._._._._.
 72
65
 73
4
 40
12.699999999999999
 49
6.3499999999999996
 74
0
 49
-3.1749999999999998
 74
0
 49
0.0
 74
0
 49
-3.1749999999999998
 74
0
  0
LTYPE
  5
39
100
AcDbSymbolTableRecord
100
AcDbLinetypeTableRecord
  2
DASHDOTX2
 70
0
  3
Dash dot (2x) ____  .  ____  .  ____  .  ___
 72
65
 73
4
 40
50.799999999999997
 49
25.399999999999999
 74
0
 49
-12.699999999999999
 74
0
 49
0.0
 74
0
 49
-12.699999999999999
 74
0
  0
LTYPE
  5
3A
100
AcDbSymbolTableRecord
100
AcDbLinetypeTableRecord
  2
DIVIDE
 70
0
  3
Divide ____ . . ____ . . ____ . . ____ . . ____
 72
65
 73
6
 40
31.75
 49
12.699999999999999
 74
0
 49
-6.3499999999999996
 74
0
 49
0.0
 74
0
 49
-6.3499999999999996
 74
0
 49
0.0
 74
0
 49
-6.3499999999999996
 74
0
  0
LTYPE
  5
3B
100
AcDbSymbolTableRecord
100
AcDbLinetypeTableRecord
  2
DIVIDE2
 70
0
  3
Divide (.5x) __..__..__..__..__..__..__..__.._
 72
65
 73
6
 40
15.875
 49
6.3499999999999996
 74
0
 49
-3.1749999999999998
 74
0
 49
0.0
 74
0
 49
-3.1749999999999998
 74
0
 49
0.0
 74
0
 49
-3.1749999999999998
 74
0
  0
LTYPE
  5
3C
100
AcDbSymbolTableRecord
100
AcDbLinetypeTableRecord
  2
DIVIDEX2
 70
0
  3
Divide (2x) ________  .  .  ________  .  .  _
 72
65
 73
6
 40
63.5
 49
25.399999999999999
 74
0
 49
-12.699999999999999
 74
0
 49
0.0
 74
0
 49
-12.699999999999999
 74
0
 49
0.0
 74
0
 49
-12.699999999999999
 74
0
  0
LTYPE
  5
3D
100
AcDbSymbolTableRecord
100
AcDbLinetypeTableRecord
  2
CENTER
 70
0
  3
Center ____ _ ____ _ ____ _ ____ _ ____ _ ____
 72
65
 73
4
 40
50.799999999999997
 49
31.75
 74
0
 49
-6.3499999999999996
 74
0
 49
6.3499999999999996
 74
0
 49
-6.3499999999999996
 74
0
  0
LTYPE
  5
3E
100
AcDbSymbolTableRecord
100
AcDbLinetypeTableRecord
  2
CENTER2
 70
0
  3
Center (.5x) ___ _ ___ _ ___ _ ___ _ ___ _ ___
 72
65
 73
4
 40
28.574999999999999
 49
19.050000000000001
 74
0
 49
-3.1749999999999998
 74
0
 49
3.1749999999999998
 74
0
 49
-3.1749999999999998
 74
0
  0
LTYPE
  5
3F
100
AcDbSymbolTableRecord
100
AcDbLinetypeTableRecord
  2
CENTERX2
 70
0
  3
Center (2x) ________  __  ________  __  _____
 72
65
 73
4
 40
101.59999999999999
 49
63.5
 74
0
 49
-12.699999999999999
 74
0
 49
12.699999999999999
 74
0
 49
-12.699999999999999
 74
0
  0
LTYPE
  5
40
100
AcDbSymbolTableRecord
100
AcDbLinetypeTableRecord
  2
BORDER
 70
0
  3
Border __ __ . __ __ . __ __ . __ __ . __ __ .
 72
65
 73
6
 40
44.450000000000003
 49
12.699999999999999
 74
0
 49
-6.3499999999999996
 74
0
 49
12.699999999999999
 74
0
 49
-6.3499999999999996
 74
0
 49
0.0
 74
0
 49
-6.3499999999999996
 74
0
  0
LTYPE
  5
41
100
AcDbSymbolTableRecord
100
AcDbLinetypeTableRecord
  2
BORDER2
 70
0
  3
Border (.5x) __.__.__.__.__.__.__.__.__.__.__.
 72
65
 73
6
 40
22.225000000000001
 49
6.3499999999999996
 74
0
 49
-3.1749999999999998
 74
0
 49
6.3499999999999996
 74
0
 49
-3.1749999999999998
 74
0
 49
0.0
 74
0
 49
-3.1749999999999998
 74
0
  0
LTYPE
  5
42
100
AcDbSymbolTableRecord
100
AcDbLinetypeTableRecord
  2
BORDERX2
 70
0
  3
Border (2x) ____  ____  .  ____  ____  .  ___
 72
65
 73
6
 40
88.900000000000006
 49
25.399999999999999
 74
0
 49
-12.699999999999999
 74
0
 49
25.399999999999999
 74
0
 49
-12.699999999999999
 74
0
 49
0.0
 74
0
 49
-12.699999999999999
 74
0
  0
ENDTAB
  0
TABLE
  2
LAYER
  5
2
100
AcDbSymbolTable
 70
5
  0
LAYER
  5
10
100
AcDbSymbolTableRecord
100
AcDbLayerTableRecord
  2
0
 70
0
 62
7
420
0
  6
CONTINUOUS
370
-3
390
F
  0
LAYER
  5
43
100
AcDbSymbolTableRecord
100
AcDbLayerTableRecord
  2
PASO1
 70
1
 62
-7
420
16777215
  6
CONTINUOUS
370
-3
390
F
  0
LAYER
  5
44
100
AcDbSymbolTableRecord
100
AcDbLayerTableRecord
  2
PASO2
 70
1
 62
-7
420
16777215
  6
CONTINUOUS
370
-3
390
F
  0
LAYER
  5
45
100
AcDbSymbolTableRecord
100
AcDbLayerTableRecord
  2
PASO3
 70
1
 62
-7
420
16777215
  6
CONTINUOUS
370
-3
390
F
  0
LAYER
  5
46
100
AcDbSymbolTableRecord
100
AcDbLayerTableRecord
  2
PASO4
 70
1
 62
-7
420
16777215
  6
CONTINUOUS
370
-3
390
F
  0
ENDTAB
  0
TABLE
  2
STYLE
  5
3
100
AcDbSymbolTable
 70
1
  0
STYLE
  5
11
100
AcDbSymbolTableRecord
100
AcDbTextStyleTableRecord
  2
Standard
 70
0
 40
0.0
 41
0.75
 50
0.0
 71
0
 42
2.5
  3
txt
  4

  0
ENDTAB
  0
TABLE
  2
VIEW
  5
6
100
AcDbSymbolTable
 70
0
  0
ENDTAB
  0
TABLE
  2
UCS
  5
7
100
AcDbSymbolTable
 70
0
  0
ENDTAB
  0
TABLE
  2
APPID
  5
9
100
AcDbSymbolTable
 70
1
  0
APPID
  5
12
100
AcDbSymbolTableRecord
100
AcDbRegAppTableRecord
  2
ACAD
 70
0
  0
ENDTAB
  0
TABLE
  2
DIMSTYLE
  5
A
100
AcDbSymbolTable
 70
1
100
AcDbDimStyleTable
 71
0
  0
DIMSTYLE
105
27
100
AcDbSymbolTableRecord
100
AcDbDimStyleTableRecord
  2
Standard
 41
0.18
 42
0.0625
 43
3.75
 44
0.18
 70
0
 73
0
 74
0
 77
1
 78
8
140
0.1504013371761754
141
2.5
143
0.03937007874016
147
0.09
171
3
172
1
271
2
272
2
274
3
278
44
283
0
284
8
340
11
  0
ENDTAB
  0
TABLE
  2
BLOCK_RECORD
  5
1
100
AcDbSymbolTable
 70
1
  0
BLOCK_RECORD
  5
1F
100
AcDbSymbolTableRecord
100
AcDbBlockTableRecord
  2
*Model_Space
340
22
  0
BLOCK_RECORD
  5
1B
100
AcDbSymbolTableRecord
100
AcDbBlockTableRecord
  2
*Paper_Space
340
1E
  0
BLOCK_RECORD
  5
23
100
AcDbSymbolTableRecord
100
AcDbBlockTableRecord
  2
*Paper_Space0
340
26
  0
BLOCK_RECORD
  5
47
100
AcDbSymbolTableRecord
100
AcDbBlockTableRecord
  2
Mkr_4898612
340
0
  0
BLOCK_RECORD
  5
48
100
AcDbSymbolTableRecord
100
AcDbBlockTableRecord
  2
Mkr_4898611
340
0
  0
BLOCK_RECORD
  5
49
100
AcDbSymbolTableRecord
100
AcDbBlockTableRecord
  2
Mkr_48986
340
0
  0
BLOCK_RECORD
  5
4A
100
AcDbSymbolTableRecord
100
AcDbBlockTableRecord
  2
Mkr_489860
340
0
  0
BLOCK_RECORD
  5
4B
100
AcDbSymbolTableRecord
100
AcDbBlockTableRecord
  2
Mkr_489861
340
0
  0
BLOCK_RECORD
  5
4C
100
AcDbSymbolTableRecord
100
AcDbBlockTableRecord
  2
Mkr_489862
340
0
  0
BLOCK_RECORD
  5
4D
100
AcDbSymbolTableRecord
100
AcDbBlockTableRecord
  2
Mkr_489863
340
0
  0
BLOCK_RECORD
  5
4E
100
AcDbSymbolTableRecord
100
AcDbBlockTableRecord
  2
Mkr_489864
340
0
  0
BLOCK_RECORD
  5
4F
100
AcDbSymbolTableRecord
100
AcDbBlockTableRecord
  2
Mkr_489865
340
0
  0
BLOCK_RECORD
  5
50
100
AcDbSymbolTableRecord
100
AcDbBlockTableRecord
  2
Mkr_489866
340
0
  0
BLOCK_RECORD
  5
51
100
AcDbSymbolTableRecord
100
AcDbBlockTableRecord
  2
Mkr_489867
340
0
  0
BLOCK_RECORD
  5
52
100
AcDbSymbolTableRecord
100
AcDbBlockTableRecord
  2
Mkr_489868
340
0
  0
BLOCK_RECORD
  5
53
100
AcDbSymbolTableRecord
100
AcDbBlockTableRecord
  2
Mkr_489869
340
0
  0
BLOCK_RECORD
  5
54
100
AcDbSymbolTableRecord
100
AcDbBlockTableRecord
  2
Mkr_4898610
340
0
  0
BLOCK_RECORD
  5
55
100
AcDbSymbolTableRecord
100
AcDbBlockTableRecord
  2
Mkr_4898613
340
0
  0
BLOCK_RECORD
  5
56
100
AcDbSymbolTableRecord
100
AcDbBlockTableRecord
  2
Mkr_49033
340
0
  0
BLOCK_RECORD
  5
57
100
AcDbSymbolTableRecord
100
AcDbBlockTableRecord
  2
Mkr_49036
340
0
  0
ENDTAB
  0
ENDSEC
  0
SECTION
  2
BLOCKS
  0
BLOCK
  5
20
100
AcDbEntity
  8
0
100
AcDbBlockBegin
  2
*Model_Space
 70
0
 10
0.0
 20
0.0
 30
0.0
  3
*Model_Space
  1

  0
ENDBLK
  5
21
100
AcDbEntity
  8
0
100
AcDbBlockEnd
  0
BLOCK
  5
1C
100
AcDbEntity
 67
1
  8
0
100
AcDbBlockBegin
  2
*Paper_Space
 70
0
 10
0.0
 20
0.0
 30
0.0
  3
*Paper_Space
  1

  0
ENDBLK
  5
1D
100
AcDbEntity
 67
1
  8
0
100
AcDbBlockEnd
  0
BLOCK
  5
24
100
AcDbEntity
  8
0
100
AcDbBlockBegin
  2
*Paper_Space0
 70
0
 10
0.0
 20
0.0
 30
0.0
  3
*Paper_Space0
  1

  0
ENDBLK
  5
25
100
AcDbEntity
  8
0
100
AcDbBlockEnd
  0
BLOCK
  5
58
100
AcDbEntity
  8
0
100
AcDbBlockBegin
  2
Mkr_4898612
 70
0
 10
0.0
 20
0.0
 30
0.0
  3
Mkr_4898612
  1

  0
LWPOLYLINE
  5
59
  8
0
 62
0
370
-1
  6
ByBlock
100
AcDbEntity
100
AcDbPolyline
 90
3
 70
1
 10
0.0
 20
0.0
 30
0.0
 10
50.79999999999999
 20
-6.349999999999997
 30
0.0
 10
50.79999999999999
 20
6.349999999999997
 30
0.0
  0
HATCH
  5
5A
  8
0
 62
6
420
16711935
370
-1
  6
ByBlock
100
AcDbEntity
100
AcDbHatch
 10
0.0
 20
0.0
 30
0.0
210
0.0
220
0.0
230
1.0
  2
SOLID
 70
1
 71
0
 91
1
 92
1
 93
1
 72
2
 10
-1.#QNAN
 20
0.0
 40
0.0
 50
0.0
 51
0.0
 73
0
 97
0
 75
0
 76
1
 98
0
  0
ENDBLK
  5
5B
100
AcDbEntity
  8
0
100
AcDbBlockEnd
  0
BLOCK
  5
5C
100
AcDbEntity
  8
0
100
AcDbBlockBegin
  2
Mkr_4898611
 70
0
 10
0.0
 20
0.0
 30
0.0
  3
Mkr_4898611
  1

  0
LWPOLYLINE
  5
5D
  8
0
 62
0
370
-1
  6
ByBlock
100
AcDbEntity
100
AcDbPolyline
 90
4
 70
0
 10
0.0
 20
0.0
 30
0.0
 10
50.79999999999999
 20
-6.349999999999997
 30
0.0
 10
50.79999999999999
 20
6.349999999999997
 30
0.0
 10
0.0
 20
0.0
 30
0.0
  0
ENDBLK
  5
5E
100
AcDbEntity
  8
0
100
AcDbBlockEnd
  0
BLOCK
  5
5F
100
AcDbEntity
  8
0
100
AcDbBlockBegin
  2
Mkr_48986
 70
0
 10
0.0
 20
0.0
 30
0.0
  3
Mkr_48986
  1

  0
LINE
  5
60
100
AcDbEntity
100
AcDbLine
  8
0
 62
0
370
-1
  6
ByBlock
 10
-12.699999999999999
 20
0.0
 30
0.0
 11
12.699999999999999
 21
0.0
 31
0.0
  0
LINE
  5
61
100
AcDbEntity
100
AcDbLine
  8
0
 62
0
370
-1
  6
ByBlock
 10
0.0
 20
-12.699999999999999
 30
0.0
 11
0.0
 21
12.699999999999999
 31
0.0
  0
ENDBLK
  5
62
100
AcDbEntity
  8
0
100
AcDbBlockEnd
  0
BLOCK
  5
63
100
AcDbEntity
  8
0
100
AcDbBlockBegin
  2
Mkr_489860
 70
0
 10
0.0
 20
0.0
 30
0.0
  3
Mkr_489860
  1

  0
LINE
  5
64
100
AcDbEntity
100
AcDbLine
  8
0
 62
0
370
-1
  6
ByBlock
 10
-12.699999999999999
 20
0.0
 30
0.0
 11
12.699999999999999
 21
0.0
 31
0.0
  0
LINE
  5
65
100
AcDbEntity
100
AcDbLine
  8
0
 62
0
370
-1
  6
ByBlock
 10
0.0
 20
-12.699999999999999
 30
0.0
 11
0.0
 21
12.699999999999999
 31
0.0
  0
ENDBLK
  5
66
100
AcDbEntity
  8
0
100
AcDbBlockEnd
  0
BLOCK
  5
67
100
AcDbEntity
  8
0
100
AcDbBlockBegin
  2
Mkr_489861
 70
0
 10
0.0
 20
0.0
 30
0.0
  3
Mkr_489861
  1

  0
LINE
  5
68
100
AcDbEntity
100
AcDbLine
  8
0
 62
0
370
-1
  6
ByBlock
 10
-12.699999999999999
 20
0.0
 30
0.0
 11
12.699999999999999
 21
0.0
 31
0.0
  0
LINE
  5
69
100
AcDbEntity
100
AcDbLine
  8
0
 62
0
370
-1
  6
ByBlock
 10
0.0
 20
-12.699999999999999
 30
0.0
 11
0.0
 21
12.699999999999999
 31
0.0
  0
ENDBLK
  5
6A
100
AcDbEntity
  8
0
100
AcDbBlockEnd
  0
BLOCK
  5
6B
100
AcDbEntity
  8
0
100
AcDbBlockBegin
  2
Mkr_489862
 70
0
 10
0.0
 20
0.0
 30
0.0
  3
Mkr_489862
  1

  0
LINE
  5
6C
100
AcDbEntity
100
AcDbLine
  8
0
 62
0
370
-1
  6
ByBlock
 10
-12.699999999999999
 20
0.0
 30
0.0
 11
12.699999999999999
 21
0.0
 31
0.0
  0
LINE
  5
6D
100
AcDbEntity
100
AcDbLine
  8
0
 62
0
370
-1
  6
ByBlock
 10
0.0
 20
-12.699999999999999
 30
0.0
 11
0.0
 21
12.699999999999999
 31
0.0
  0
ENDBLK
  5
6E
100
AcDbEntity
  8
0
100
AcDbBlockEnd
  0
BLOCK
  5
6F
100
AcDbEntity
  8
0
100
AcDbBlockBegin
  2
Mkr_489863
 70
0
 10
0.0
 20
0.0
 30
0.0
  3
Mkr_489863
  1

  0
LINE
  5
70
100
AcDbEntity
100
AcDbLine
  8
0
 62
0
370
-1
  6
ByBlock
 10
-12.699999999999999
 20
0.0
 30
0.0
 11
12.699999999999999
 21
0.0
 31
0.0
  0
LINE
  5
71
100
AcDbEntity
100
AcDbLine
  8
0
 62
0
370
-1
  6
ByBlock
 10
0.0
 20
-12.699999999999999
 30
0.0
 11
0.0
 21
12.699999999999999
 31
0.0
  0
ENDBLK
  5
72
100
AcDbEntity
  8
0
100
AcDbBlockEnd
  0
BLOCK
  5
73
100
AcDbEntity
  8
0
100
AcDbBlockBegin
  2
Mkr_489864
 70
0
 10
0.0
 20
0.0
 30
0.0
  3
Mkr_489864
  1

  0
LINE
  5
74
100
AcDbEntity
100
AcDbLine
  8
0
 62
0
370
-1
  6
ByBlock
 10
-12.699999999999999
 20
0.0
 30
0.0
 11
12.699999999999999
 21
0.0
 31
0.0
  0
LINE
  5
75
100
AcDbEntity
100
AcDbLine
  8
0
 62
0
370
-1
  6
ByBlock
 10
0.0
 20
-12.699999999999999
 30
0.0
 11
0.0
 21
12.699999999999999
 31
0.0
  0
ENDBLK
  5
76
100
AcDbEntity
  8
0
100
AcDbBlockEnd
  0
BLOCK
  5
77
100
AcDbEntity
  8
0
100
AcDbBlockBegin
  2
Mkr_489865
 70
0
 10
0.0
 20
0.0
 30
0.0
  3
Mkr_489865
  1

  0
LINE
  5
78
100
AcDbEntity
100
AcDbLine
  8
0
 62
0
370
-1
  6
ByBlock
 10
-12.699999999999999
 20
0.0
 30
0.0
 11
12.699999999999999
 21
0.0
 31
0.0
  0
LINE
  5
79
100
AcDbEntity
100
AcDbLine
  8
0
 62
0
370
-1
  6
ByBlock
 10
0.0
 20
-12.699999999999999
 30
0.0
 11
0.0
 21
12.699999999999999
 31
0.0
  0
ENDBLK
  5
7A
100
AcDbEntity
  8
0
100
AcDbBlockEnd
  0
BLOCK
  5
7B
100
AcDbEntity
  8
0
100
AcDbBlockBegin
  2
Mkr_489866
 70
0
 10
0.0
 20
0.0
 30
0.0
  3
Mkr_489866
  1

  0
LWPOLYLINE
  5
7C
  8
0
 62
0
370
-1
  6
ByBlock
100
AcDbEntity
100
AcDbPolyline
 90
97
 70
0
 10
12.699999999999999
 20
0.0
 30
0.0
 10
12.67280832513026
 20
0.8306197412228167
 30
0.0
 10
12.59134973944739
 20
1.6576826411946539
 30
0.0
 10
12.45597306112103
 20
2.4776470896048268
 30
0.0
 10
12.267257993871169
 20
3.2870018728020121
 30
0.0
 10
12.026012644587841
 20
4.0822812093501506
 30
0.0
 10
11.73327006289334
 20
4.8600795910366381
 30
0.0
 10
11.390283817465139
 20
5.6170663657813131
 30
0.0
 10
10.99852262806237
 20
6.349999999999997
 30
0.0
 10
10.559664076242321
 20
7.0557419593489472
 30
0.0
 10
10.07558742169868
 20
7.7312701484107498
 30
0.0
 10
9.5483655549830111
 20
8.3736918517708752
 30
0.0
 10
8.9802561210691501
 20
8.9802561210691501
 30
0.0
 10
8.3736918517708698
 20
9.5483655549830111
 30
0.0
 10
7.731270148410748
 20
10.075587421698691
 30
0.0
 10
7.0557419593489437
 20
10.559664076242321
 30
0.0
 10
6.349999999999997
 20
10.99852262806237
 30
0.0
 10
5.6170663657813149
 20
11.390283817465139
 30
0.0
 10
4.860079591036639
 20
11.73327006289334
 30
0.0
 10
4.0822812093501524
 20
12.026012644587841
 30
0.0
 10
3.2870018728020161
 20
12.26725799387116
 30
0.0
 10
2.4776470896048322
 20
12.45597306112103
 30
0.0
 10
1.657682641194659
 20
12.59134973944739
 30
0.0
 10
0.8306197412228225
 20
12.67280832513026
 30
0.0
 10
0.0000000000000064
 20
12.699999999999999
 30
0.0
 10
-0.8306197412228094
 20
12.67280832513026
 30
0.0
 10
-1.6576826411946459
 20
12.59134973944739
 30
0.0
 10
-2.4776470896048179
 20
12.45597306112103
 30
0.0
 10
-3.2870018728020018
 20
12.267257993871169
 30
0.0
 10
-4.0822812093501408
 20
12.026012644587841
 30
0.0
 10
-4.8600795910366266
 20
11.73327006289334
 30
0.0
 10
-5.6170663657813016
 20
11.390283817465139
 30
0.0
 10
-6.3499999999999872
 20
10.99852262806237
 30
0.0
 10
-7.055741959348933
 20
10.559664076242321
 30
0.0
 10
-7.7312701484107391
 20
10.075587421698691
 30
0.0
 10
-8.3736918517708592
 20
9.5483655549830235
 30
0.0
 10
-8.9802561210691376
 20
8.9802561210691643
 30
0.0
 10
-9.5483655549830004
 20
8.3736918517708858
 30
0.0
 10
-10.075587421698669
 20
7.7312701484107667
 30
0.0
 10
-10.55966407624231
 20
7.0557419593489641
 30
0.0
 10
-10.998522628062361
 20
6.3500000000000183
 30
0.0
 10
-11.39028381746513
 20
5.6170663657813362
 30
0.0
 10
-11.733270062893331
 20
4.8600795910366621
 30
0.0
 10
-12.02601264458783
 20
4.0822812093501737
 30
0.0
 10
-12.26725799387116
 20
3.2870018728020369
 30
0.0
 10
-12.45597306112102
 20
2.4776470896048539
 30
0.0
 10
-12.59134973944739
 20
1.657682641194681
 30
0.0
 10
-12.67280832513026
 20
0.8306197412228454
 30
0.0
 10
-12.699999999999999
 20
0.0000000000000298
 30
0.0
 10
-12.67280832513026
 20
-0.8306197412227862
 30
0.0
 10
-12.59134973944739
 20
-1.6576826411946219
 30
0.0
 10
-12.45597306112103
 20
-2.4776470896047962
 30
0.0
 10
-12.267257993871169
 20
-3.2870018728019792
 30
0.0
 10
-12.026012644587849
 20
-4.0822812093501168
 30
0.0
 10
-11.73327006289335
 20
-4.8600795910366061
 30
0.0
 10
-11.390283817465139
 20
-5.617066365781282
 30
0.0
 10
-10.998522628062389
 20
-6.3499999999999641
 30
0.0
 10
-10.55966407624234
 20
-7.0557419593489161
 30
0.0
 10
-10.07558742169871
 20
-7.7312701484107187
 30
0.0
 10
-9.5483655549830395
 20
-8.3736918517708432
 30
0.0
 10
-8.980256121069182
 20
-8.9802561210691234
 30
0.0
 10
-8.3736918517709071
 20
-9.5483655549829844
 30
0.0
 10
-7.7312701484107809
 20
-10.075587421698661
 30
0.0
 10
-7.055741959348973
 20
-10.559664076242299
 30
0.0
 10
-6.350000000000021
 20
-10.99852262806235
 30
0.0
 10
-5.6170663657813362
 20
-11.39028381746513
 30
0.0
 10
-4.860079591036655
 20
-11.733270062893331
 30
0.0
 10
-4.0822812093501639
 20
-12.026012644587841
 30
0.0
 10
-3.2870018728020218
 20
-12.26725799387116
 30
0.0
 10
-2.477647089604833
 20
-12.45597306112102
 30
0.0
 10
-1.6576826411946539
 20
-12.59134973944739
 30
0.0
 10
-0.8306197412228124
 20
-12.67280832513026
 30
0.0
 10
0.0000000000000089
 20
-12.699999999999999
 30
0.0
 10
0.8306197412228302
 20
-12.67280832513026
 30
0.0
 10
1.657682641194673
 20
-12.59134973944739
 30
0.0
 10
2.4776470896048499
 20
-12.45597306112102
 30
0.0
 10
3.28700187280204
 20
-12.26725799387116
 30
0.0
 10
4.0822812093501808
 20
-12.02601264458783
 30
0.0
 10
4.8600795910366719
 20
-11.733270062893331
 30
0.0
 10
5.6170663657813531
 20
-11.39028381746512
 30
0.0
 10
6.3500000000000361
 20
-10.998522628062339
 30
0.0
 10
7.0557419593489881
 20
-10.55966407624229
 30
0.0
 10
7.7312701484107942
 20
-10.07558742169865
 30
0.0
 10
8.3736918517709178
 20
-9.548365554982972
 30
0.0
 10
8.980256121069198
 20
-8.9802561210691074
 30
0.0
 10
9.5483655549830608
 20
-8.3736918517708219
 30
0.0
 10
10.07558742169873
 20
-7.7312701484106912
 30
0.0
 10
10.55966407624236
 20
-7.0557419593488824
 30
0.0
 10
10.99852262806241
 20
-6.349999999999925
 30
0.0
 10
11.39028381746518
 20
-5.6170663657812359
 30
0.0
 10
11.73327006289337
 20
-4.860079591036552
 30
0.0
 10
12.026012644587871
 20
-4.08228120935006
 30
0.0
 10
12.267257993871191
 20
-3.287001872801913
 30
0.0
 10
12.455973061121041
 20
-2.4776470896047229
 30
0.0
 10
12.591349739447409
 20
-1.6576826411945429
 30
0.0
 10
12.672808325130269
 20
-0.8306197412227009
 30
0.0
 10
12.699999999999999
 20
0.0
 30
0.0
  0
ENDBLK
  5
7D
100
AcDbEntity
  8
0
100
AcDbBlockEnd
  0
BLOCK
  5
7E
100
AcDbEntity
  8
0
100
AcDbBlockBegin
  2
Mkr_489867
 70
0
 10
0.0
 20
0.0
 30
0.0
  3
Mkr_489867
  1

  0
LWPOLYLINE
  5
7F
  8
0
 62
0
370
-1
  6
ByBlock
100
AcDbEntity
100
AcDbPolyline
 90
97
 70
0
 10
12.699999999999999
 20
0.0
 30
0.0
 10
12.67280832513026
 20
0.8306197412228167
 30
0.0
 10
12.59134973944739
 20
1.6576826411946539
 30
0.0
 10
12.45597306112103
 20
2.4776470896048268
 30
0.0
 10
12.267257993871169
 20
3.2870018728020121
 30
0.0
 10
12.026012644587841
 20
4.0822812093501506
 30
0.0
 10
11.73327006289334
 20
4.8600795910366381
 30
0.0
 10
11.390283817465139
 20
5.6170663657813131
 30
0.0
 10
10.99852262806237
 20
6.349999999999997
 30
0.0
 10
10.559664076242321
 20
7.0557419593489472
 30
0.0
 10
10.07558742169868
 20
7.7312701484107498
 30
0.0
 10
9.5483655549830111
 20
8.3736918517708752
 30
0.0
 10
8.9802561210691501
 20
8.9802561210691501
 30
0.0
 10
8.3736918517708698
 20
9.5483655549830111
 30
0.0
 10
7.731270148410748
 20
10.075587421698691
 30
0.0
 10
7.0557419593489437
 20
10.559664076242321
 30
0.0
 10
6.349999999999997
 20
10.99852262806237
 30
0.0
 10
5.6170663657813149
 20
11.390283817465139
 30
0.0
 10
4.860079591036639
 20
11.73327006289334
 30
0.0
 10
4.0822812093501524
 20
12.026012644587841
 30
0.0
 10
3.2870018728020161
 20
12.26725799387116
 30
0.0
 10
2.4776470896048322
 20
12.45597306112103
 30
0.0
 10
1.657682641194659
 20
12.59134973944739
 30
0.0
 10
0.8306197412228225
 20
12.67280832513026
 30
0.0
 10
0.0000000000000064
 20
12.699999999999999
 30
0.0
 10
-0.8306197412228094
 20
12.67280832513026
 30
0.0
 10
-1.6576826411946459
 20
12.59134973944739
 30
0.0
 10
-2.4776470896048179
 20
12.45597306112103
 30
0.0
 10
-3.2870018728020018
 20
12.267257993871169
 30
0.0
 10
-4.0822812093501408
 20
12.026012644587841
 30
0.0
 10
-4.8600795910366266
 20
11.73327006289334
 30
0.0
 10
-5.6170663657813016
 20
11.390283817465139
 30
0.0
 10
-6.3499999999999872
 20
10.99852262806237
 30
0.0
 10
-7.055741959348933
 20
10.559664076242321
 30
0.0
 10
-7.7312701484107391
 20
10.075587421698691
 30
0.0
 10
-8.3736918517708592
 20
9.5483655549830235
 30
0.0
 10
-8.9802561210691376
 20
8.9802561210691643
 30
0.0
 10
-9.5483655549830004
 20
8.3736918517708858
 30
0.0
 10
-10.075587421698669
 20
7.7312701484107667
 30
0.0
 10
-10.55966407624231
 20
7.0557419593489641
 30
0.0
 10
-10.998522628062361
 20
6.3500000000000183
 30
0.0
 10
-11.39028381746513
 20
5.6170663657813362
 30
0.0
 10
-11.733270062893331
 20
4.8600795910366621
 30
0.0
 10
-12.02601264458783
 20
4.0822812093501737
 30
0.0
 10
-12.26725799387116
 20
3.2870018728020369
 30
0.0
 10
-12.45597306112102
 20
2.4776470896048539
 30
0.0
 10
-12.59134973944739
 20
1.657682641194681
 30
0.0
 10
-12.67280832513026
 20
0.8306197412228454
 30
0.0
 10
-12.699999999999999
 20
0.0000000000000298
 30
0.0
 10
-12.67280832513026
 20
-0.8306197412227862
 30
0.0
 10
-12.59134973944739
 20
-1.6576826411946219
 30
0.0
 10
-12.45597306112103
 20
-2.4776470896047962
 30
0.0
 10
-12.267257993871169
 20
-3.2870018728019792
 30
0.0
 10
-12.026012644587849
 20
-4.0822812093501168
 30
0.0
 10
-11.73327006289335
 20
-4.8600795910366061
 30
0.0
 10
-11.390283817465139
 20
-5.617066365781282
 30
0.0
 10
-10.998522628062389
 20
-6.3499999999999641
 30
0.0
 10
-10.55966407624234
 20
-7.0557419593489161
 30
0.0
 10
-10.07558742169871
 20
-7.7312701484107187
 30
0.0
 10
-9.5483655549830395
 20
-8.3736918517708432
 30
0.0
 10
-8.980256121069182
 20
-8.9802561210691234
 30
0.0
 10
-8.3736918517709071
 20
-9.5483655549829844
 30
0.0
 10
-7.7312701484107809
 20
-10.075587421698661
 30
0.0
 10
-7.055741959348973
 20
-10.559664076242299
 30
0.0
 10
-6.350000000000021
 20
-10.99852262806235
 30
0.0
 10
-5.6170663657813362
 20
-11.39028381746513
 30
0.0
 10
-4.860079591036655
 20
-11.733270062893331
 30
0.0
 10
-4.0822812093501639
 20
-12.026012644587841
 30
0.0
 10
-3.2870018728020218
 20
-12.26725799387116
 30
0.0
 10
-2.477647089604833
 20
-12.45597306112102
 30
0.0
 10
-1.6576826411946539
 20
-12.59134973944739
 30
0.0
 10
-0.8306197412228124
 20
-12.67280832513026
 30
0.0
 10
0.0000000000000089
 20
-12.699999999999999
 30
0.0
 10
0.8306197412228302
 20
-12.67280832513026
 30
0.0
 10
1.657682641194673
 20
-12.59134973944739
 30
0.0
 10
2.4776470896048499
 20
-12.45597306112102
 30
0.0
 10
3.28700187280204
 20
-12.26725799387116
 30
0.0
 10
4.0822812093501808
 20
-12.02601264458783
 30
0.0
 10
4.8600795910366719
 20
-11.733270062893331
 30
0.0
 10
5.6170663657813531
 20
-11.39028381746512
 30
0.0
 10
6.3500000000000361
 20
-10.998522628062339
 30
0.0
 10
7.0557419593489881
 20
-10.55966407624229
 30
0.0
 10
7.7312701484107942
 20
-10.07558742169865
 30
0.0
 10
8.3736918517709178
 20
-9.548365554982972
 30
0.0
 10
8.980256121069198
 20
-8.9802561210691074
 30
0.0
 10
9.5483655549830608
 20
-8.3736918517708219
 30
0.0
 10
10.07558742169873
 20
-7.7312701484106912
 30
0.0
 10
10.55966407624236
 20
-7.0557419593488824
 30
0.0
 10
10.99852262806241
 20
-6.349999999999925
 30
0.0
 10
11.39028381746518
 20
-5.6170663657812359
 30
0.0
 10
11.73327006289337
 20
-4.860079591036552
 30
0.0
 10
12.026012644587871
 20
-4.08228120935006
 30
0.0
 10
12.267257993871191
 20
-3.287001872801913
 30
0.0
 10
12.455973061121041
 20
-2.4776470896047229
 30
0.0
 10
12.591349739447409
 20
-1.6576826411945429
 30
0.0
 10
12.672808325130269
 20
-0.8306197412227009
 30
0.0
 10
12.699999999999999
 20
0.0
 30
0.0
  0
ENDBLK
  5
80
100
AcDbEntity
  8
0
100
AcDbBlockEnd
  0
BLOCK
  5
81
100
AcDbEntity
  8
0
100
AcDbBlockBegin
  2
Mkr_489868
 70
0
 10
0.0
 20
0.0
 30
0.0
  3
Mkr_489868
  1

  0
LWPOLYLINE
  5
82
  8
0
 62
0
370
-1
  6
ByBlock
100
AcDbEntity
100
AcDbPolyline
 90
97
 70
0
 10
12.699999999999999
 20
0.0
 30
0.0
 10
12.67280832513026
 20
0.8306197412228167
 30
0.0
 10
12.59134973944739
 20
1.6576826411946539
 30
0.0
 10
12.45597306112103
 20
2.4776470896048268
 30
0.0
 10
12.267257993871169
 20
3.2870018728020121
 30
0.0
 10
12.026012644587841
 20
4.0822812093501506
 30
0.0
 10
11.73327006289334
 20
4.8600795910366381
 30
0.0
 10
11.390283817465139
 20
5.6170663657813131
 30
0.0
 10
10.99852262806237
 20
6.349999999999997
 30
0.0
 10
10.559664076242321
 20
7.0557419593489472
 30
0.0
 10
10.07558742169868
 20
7.7312701484107498
 30
0.0
 10
9.5483655549830111
 20
8.3736918517708752
 30
0.0
 10
8.9802561210691501
 20
8.9802561210691501
 30
0.0
 10
8.3736918517708698
 20
9.5483655549830111
 30
0.0
 10
7.731270148410748
 20
10.075587421698691
 30
0.0
 10
7.0557419593489437
 20
10.559664076242321
 30
0.0
 10
6.349999999999997
 20
10.99852262806237
 30
0.0
 10
5.6170663657813149
 20
11.390283817465139
 30
0.0
 10
4.860079591036639
 20
11.73327006289334
 30
0.0
 10
4.0822812093501524
 20
12.026012644587841
 30
0.0
 10
3.2870018728020161
 20
12.26725799387116
 30
0.0
 10
2.4776470896048322
 20
12.45597306112103
 30
0.0
 10
1.657682641194659
 20
12.59134973944739
 30
0.0
 10
0.8306197412228225
 20
12.67280832513026
 30
0.0
 10
0.0000000000000064
 20
12.699999999999999
 30
0.0
 10
-0.8306197412228094
 20
12.67280832513026
 30
0.0
 10
-1.6576826411946459
 20
12.59134973944739
 30
0.0
 10
-2.4776470896048179
 20
12.45597306112103
 30
0.0
 10
-3.2870018728020018
 20
12.267257993871169
 30
0.0
 10
-4.0822812093501408
 20
12.026012644587841
 30
0.0
 10
-4.8600795910366266
 20
11.73327006289334
 30
0.0
 10
-5.6170663657813016
 20
11.390283817465139
 30
0.0
 10
-6.3499999999999872
 20
10.99852262806237
 30
0.0
 10
-7.055741959348933
 20
10.559664076242321
 30
0.0
 10
-7.7312701484107391
 20
10.075587421698691
 30
0.0
 10
-8.3736918517708592
 20
9.5483655549830235
 30
0.0
 10
-8.9802561210691376
 20
8.9802561210691643
 30
0.0
 10
-9.5483655549830004
 20
8.3736918517708858
 30
0.0
 10
-10.075587421698669
 20
7.7312701484107667
 30
0.0
 10
-10.55966407624231
 20
7.0557419593489641
 30
0.0
 10
-10.998522628062361
 20
6.3500000000000183
 30
0.0
 10
-11.39028381746513
 20
5.6170663657813362
 30
0.0
 10
-11.733270062893331
 20
4.8600795910366621
 30
0.0
 10
-12.02601264458783
 20
4.0822812093501737
 30
0.0
 10
-12.26725799387116
 20
3.2870018728020369
 30
0.0
 10
-12.45597306112102
 20
2.4776470896048539
 30
0.0
 10
-12.59134973944739
 20
1.657682641194681
 30
0.0
 10
-12.67280832513026
 20
0.8306197412228454
 30
0.0
 10
-12.699999999999999
 20
0.0000000000000298
 30
0.0
 10
-12.67280832513026
 20
-0.8306197412227862
 30
0.0
 10
-12.59134973944739
 20
-1.6576826411946219
 30
0.0
 10
-12.45597306112103
 20
-2.4776470896047962
 30
0.0
 10
-12.267257993871169
 20
-3.2870018728019792
 30
0.0
 10
-12.026012644587849
 20
-4.0822812093501168
 30
0.0
 10
-11.73327006289335
 20
-4.8600795910366061
 30
0.0
 10
-11.390283817465139
 20
-5.617066365781282
 30
0.0
 10
-10.998522628062389
 20
-6.3499999999999641
 30
0.0
 10
-10.55966407624234
 20
-7.0557419593489161
 30
0.0
 10
-10.07558742169871
 20
-7.7312701484107187
 30
0.0
 10
-9.5483655549830395
 20
-8.3736918517708432
 30
0.0
 10
-8.980256121069182
 20
-8.9802561210691234
 30
0.0
 10
-8.3736918517709071
 20
-9.5483655549829844
 30
0.0
 10
-7.7312701484107809
 20
-10.075587421698661
 30
0.0
 10
-7.055741959348973
 20
-10.559664076242299
 30
0.0
 10
-6.350000000000021
 20
-10.99852262806235
 30
0.0
 10
-5.6170663657813362
 20
-11.39028381746513
 30
0.0
 10
-4.860079591036655
 20
-11.733270062893331
 30
0.0
 10
-4.0822812093501639
 20
-12.026012644587841
 30
0.0
 10
-3.2870018728020218
 20
-12.26725799387116
 30
0.0
 10
-2.477647089604833
 20
-12.45597306112102
 30
0.0
 10
-1.6576826411946539
 20
-12.59134973944739
 30
0.0
 10
-0.8306197412228124
 20
-12.67280832513026
 30
0.0
 10
0.0000000000000089
 20
-12.699999999999999
 30
0.0
 10
0.8306197412228302
 20
-12.67280832513026
 30
0.0
 10
1.657682641194673
 20
-12.59134973944739
 30
0.0
 10
2.4776470896048499
 20
-12.45597306112102
 30
0.0
 10
3.28700187280204
 20
-12.26725799387116
 30
0.0
 10
4.0822812093501808
 20
-12.02601264458783
 30
0.0
 10
4.8600795910366719
 20
-11.733270062893331
 30
0.0
 10
5.6170663657813531
 20
-11.39028381746512
 30
0.0
 10
6.3500000000000361
 20
-10.998522628062339
 30
0.0
 10
7.0557419593489881
 20
-10.55966407624229
 30
0.0
 10
7.7312701484107942
 20
-10.07558742169865
 30
0.0
 10
8.3736918517709178
 20
-9.548365554982972
 30
0.0
 10
8.980256121069198
 20
-8.9802561210691074
 30
0.0
 10
9.5483655549830608
 20
-8.3736918517708219
 30
0.0
 10
10.07558742169873
 20
-7.7312701484106912
 30
0.0
 10
10.55966407624236
 20
-7.0557419593488824
 30
0.0
 10
10.99852262806241
 20
-6.349999999999925
 30
0.0
 10
11.39028381746518
 20
-5.6170663657812359
 30
0.0
 10
11.73327006289337
 20
-4.860079591036552
 30
0.0
 10
12.026012644587871
 20
-4.08228120935006
 30
0.0
 10
12.267257993871191
 20
-3.287001872801913
 30
0.0
 10
12.455973061121041
 20
-2.4776470896047229
 30
0.0
 10
12.591349739447409
 20
-1.6576826411945429
 30
0.0
 10
12.672808325130269
 20
-0.8306197412227009
 30
0.0
 10
12.699999999999999
 20
0.0
 30
0.0
  0
ENDBLK
  5
83
100
AcDbEntity
  8
0
100
AcDbBlockEnd
  0
BLOCK
  5
84
100
AcDbEntity
  8
0
100
AcDbBlockBegin
  2
Mkr_489869
 70
0
 10
0.0
 20
0.0
 30
0.0
  3
Mkr_489869
  1

  0
LWPOLYLINE
  5
85
  8
0
 62
0
370
-1
  6
ByBlock
100
AcDbEntity
100
AcDbPolyline
 90
97
 70
0
 10
12.699999999999999
 20
0.0
 30
0.0
 10
12.67280832513026
 20
0.8306197412228167
 30
0.0
 10
12.59134973944739
 20
1.6576826411946539
 30
0.0
 10
12.45597306112103
 20
2.4776470896048268
 30
0.0
 10
12.267257993871169
 20
3.2870018728020121
 30
0.0
 10
12.026012644587841
 20
4.0822812093501506
 30
0.0
 10
11.73327006289334
 20
4.8600795910366381
 30
0.0
 10
11.390283817465139
 20
5.6170663657813131
 30
0.0
 10
10.99852262806237
 20
6.349999999999997
 30
0.0
 10
10.559664076242321
 20
7.0557419593489472
 30
0.0
 10
10.07558742169868
 20
7.7312701484107498
 30
0.0
 10
9.5483655549830111
 20
8.3736918517708752
 30
0.0
 10
8.9802561210691501
 20
8.9802561210691501
 30
0.0
 10
8.3736918517708698
 20
9.5483655549830111
 30
0.0
 10
7.731270148410748
 20
10.075587421698691
 30
0.0
 10
7.0557419593489437
 20
10.559664076242321
 30
0.0
 10
6.349999999999997
 20
10.99852262806237
 30
0.0
 10
5.6170663657813149
 20
11.390283817465139
 30
0.0
 10
4.860079591036639
 20
11.73327006289334
 30
0.0
 10
4.0822812093501524
 20
12.026012644587841
 30
0.0
 10
3.2870018728020161
 20
12.26725799387116
 30
0.0
 10
2.4776470896048322
 20
12.45597306112103
 30
0.0
 10
1.657682641194659
 20
12.59134973944739
 30
0.0
 10
0.8306197412228225
 20
12.67280832513026
 30
0.0
 10
0.0000000000000064
 20
12.699999999999999
 30
0.0
 10
-0.8306197412228094
 20
12.67280832513026
 30
0.0
 10
-1.6576826411946459
 20
12.59134973944739
 30
0.0
 10
-2.4776470896048179
 20
12.45597306112103
 30
0.0
 10
-3.2870018728020018
 20
12.267257993871169
 30
0.0
 10
-4.0822812093501408
 20
12.026012644587841
 30
0.0
 10
-4.8600795910366266
 20
11.73327006289334
 30
0.0
 10
-5.6170663657813016
 20
11.390283817465139
 30
0.0
 10
-6.3499999999999872
 20
10.99852262806237
 30
0.0
 10
-7.055741959348933
 20
10.559664076242321
 30
0.0
 10
-7.7312701484107391
 20
10.075587421698691
 30
0.0
 10
-8.3736918517708592
 20
9.5483655549830235
 30
0.0
 10
-8.9802561210691376
 20
8.9802561210691643
 30
0.0
 10
-9.5483655549830004
 20
8.3736918517708858
 30
0.0
 10
-10.075587421698669
 20
7.7312701484107667
 30
0.0
 10
-10.55966407624231
 20
7.0557419593489641
 30
0.0
 10
-10.998522628062361
 20
6.3500000000000183
 30
0.0
 10
-11.39028381746513
 20
5.6170663657813362
 30
0.0
 10
-11.733270062893331
 20
4.8600795910366621
 30
0.0
 10
-12.02601264458783
 20
4.0822812093501737
 30
0.0
 10
-12.26725799387116
 20
3.2870018728020369
 30
0.0
 10
-12.45597306112102
 20
2.4776470896048539
 30
0.0
 10
-12.59134973944739
 20
1.657682641194681
 30
0.0
 10
-12.67280832513026
 20
0.8306197412228454
 30
0.0
 10
-12.699999999999999
 20
0.0000000000000298
 30
0.0
 10
-12.67280832513026
 20
-0.8306197412227862
 30
0.0
 10
-12.59134973944739
 20
-1.6576826411946219
 30
0.0
 10
-12.45597306112103
 20
-2.4776470896047962
 30
0.0
 10
-12.267257993871169
 20
-3.2870018728019792
 30
0.0
 10
-12.026012644587849
 20
-4.0822812093501168
 30
0.0
 10
-11.73327006289335
 20
-4.8600795910366061
 30
0.0
 10
-11.390283817465139
 20
-5.617066365781282
 30
0.0
 10
-10.998522628062389
 20
-6.3499999999999641
 30
0.0
 10
-10.55966407624234
 20
-7.0557419593489161
 30
0.0
 10
-10.07558742169871
 20
-7.7312701484107187
 30
0.0
 10
-9.5483655549830395
 20
-8.3736918517708432
 30
0.0
 10
-8.980256121069182
 20
-8.9802561210691234
 30
0.0
 10
-8.3736918517709071
 20
-9.5483655549829844
 30
0.0
 10
-7.7312701484107809
 20
-10.075587421698661
 30
0.0
 10
-7.055741959348973
 20
-10.559664076242299
 30
0.0
 10
-6.350000000000021
 20
-10.99852262806235
 30
0.0
 10
-5.6170663657813362
 20
-11.39028381746513
 30
0.0
 10
-4.860079591036655
 20
-11.733270062893331
 30
0.0
 10
-4.0822812093501639
 20
-12.026012644587841
 30
0.0
 10
-3.2870018728020218
 20
-12.26725799387116
 30
0.0
 10
-2.477647089604833
 20
-12.45597306112102
 30
0.0
 10
-1.6576826411946539
 20
-12.59134973944739
 30
0.0
 10
-0.8306197412228124
 20
-12.67280832513026
 30
0.0
 10
0.0000000000000089
 20
-12.699999999999999
 30
0.0
 10
0.8306197412228302
 20
-12.67280832513026
 30
0.0
 10
1.657682641194673
 20
-12.59134973944739
 30
0.0
 10
2.4776470896048499
 20
-12.45597306112102
 30
0.0
 10
3.28700187280204
 20
-12.26725799387116
 30
0.0
 10
4.0822812093501808
 20
-12.02601264458783
 30
0.0
 10
4.8600795910366719
 20
-11.733270062893331
 30
0.0
 10
5.6170663657813531
 20
-11.39028381746512
 30
0.0
 10
6.3500000000000361
 20
-10.998522628062339
 30
0.0
 10
7.0557419593489881
 20
-10.55966407624229
 30
0.0
 10
7.7312701484107942
 20
-10.07558742169865
 30
0.0
 10
8.3736918517709178
 20
-9.548365554982972
 30
0.0
 10
8.980256121069198
 20
-8.9802561210691074
 30
0.0
 10
9.5483655549830608
 20
-8.3736918517708219
 30
0.0
 10
10.07558742169873
 20
-7.7312701484106912
 30
0.0
 10
10.55966407624236
 20
-7.0557419593488824
 30
0.0
 10
10.99852262806241
 20
-6.349999999999925
 30
0.0
 10
11.39028381746518
 20
-5.6170663657812359
 30
0.0
 10
11.73327006289337
 20
-4.860079591036552
 30
0.0
 10
12.026012644587871
 20
-4.08228120935006
 30
0.0
 10
12.267257993871191
 20
-3.287001872801913
 30
0.0
 10
12.455973061121041
 20
-2.4776470896047229
 30
0.0
 10
12.591349739447409
 20
-1.6576826411945429
 30
0.0
 10
12.672808325130269
 20
-0.8306197412227009
 30
0.0
 10
12.699999999999999
 20
0.0
 30
0.0
  0
ENDBLK
  5
86
100
AcDbEntity
  8
0
100
AcDbBlockEnd
  0
BLOCK
  5
87
100
AcDbEntity
  8
0
100
AcDbBlockBegin
  2
Mkr_4898610
 70
0
 10
0.0
 20
0.0
 30
0.0
  3
Mkr_4898610
  1

  0
LWPOLYLINE
  5
88
  8
0
 62
0
370
-1
  6
ByBlock
100
AcDbEntity
100
AcDbPolyline
 90
4
 70
0
 10
0.0
 20
0.0
 30
0.0
 10
50.79999999999999
 20
-6.349999999999997
 30
0.0
 10
50.79999999999999
 20
6.349999999999997
 30
0.0
 10
0.0
 20
0.0
 30
0.0
  0
ENDBLK
  5
89
100
AcDbEntity
  8
0
100
AcDbBlockEnd
  0
BLOCK
  5
8A
100
AcDbEntity
  8
0
100
AcDbBlockBegin
  2
Mkr_4898613
 70
0
 10
0.0
 20
0.0
 30
0.0
  3
Mkr_4898613
  1

  0
LWPOLYLINE
  5
8B
  8
0
 62
0
370
-1
  6
ByBlock
100
AcDbEntity
100
AcDbPolyline
 90
4
 70
0
 10
0.0
 20
0.0
 30
0.0
 10
50.79999999999999
 20
-6.349999999999997
 30
0.0
 10
50.79999999999999
 20
6.349999999999997
 30
0.0
 10
0.0
 20
0.0
 30
0.0
  0
ENDBLK
  5
8C
100
AcDbEntity
  8
0
100
AcDbBlockEnd
  0
BLOCK
  5
8D
100
AcDbEntity
  8
0
100
AcDbBlockBegin
  2
Mkr_49033
 70
0
 10
0.0
 20
0.0
 30
0.0
  3
Mkr_49033
  1

  0
LWPOLYLINE
  5
8E
  8
0
 62
0
370
-1
  6
ByBlock
100
AcDbEntity
100
AcDbPolyline
 90
4
 70
0
 10
0.0
 20
0.0
 30
0.0
 10
50.79999999999999
 20
-6.349999999999997
 30
0.0
 10
50.79999999999999
 20
6.349999999999997
 30
0.0
 10
0.0
 20
0.0
 30
0.0
  0
ENDBLK
  5
8F
100
AcDbEntity
  8
0
100
AcDbBlockEnd
  0
BLOCK
  5
90
100
AcDbEntity
  8
0
100
AcDbBlockBegin
  2
Mkr_49036
 70
0
 10
0.0
 20
0.0
 30
0.0
  3
Mkr_49036
  1

  0
LWPOLYLINE
  5
91
  8
0
 62
0
370
-1
  6
ByBlock
100
AcDbEntity
100
AcDbPolyline
 90
4
 70
0
 10
0.0
 20
0.0
 30
0.0
 10
50.79999999999999
 20
-6.349999999999997
 30
0.0
 10
50.79999999999999
 20
6.349999999999997
 30
0.0
 10
0.0
 20
0.0
 30
0.0
  0
ENDBLK
  5
92
100
AcDbEntity
  8
0
100
AcDbBlockEnd
  0
ENDSEC
  0
SECTION
  2
ENTITIES
  0
INSERT
  5
93
100
AcDbEntity
100
AcDbBlockReference
  8
PASO4
 62
6
420
16711935
370
-1
  6
CONTINUOUS
  2
Mkr_4898612
 10
94.184915889380122
 20
96.711690824927771
 30
0.0
 41
0.078740157480315
 42
0.078740157480315
 43
1.0
 50
180.0
  0
INSERT
  5
94
100
AcDbEntity
100
AcDbBlockReference
  8
PASO4
 62
6
420
16711935
370
-1
  6
CONTINUOUS
  2
Mkr_4898611
 10
150.25272658781131
 20
96.711690824927715
 30
0.0
 41
0.078740157480315
 42
0.078740157480315
 43
1.0
  0
MTEXT
  5
95
100
AcDbEntity
100
AcDbMText
  8
PASO1
 62
7
420
16777215
370
-1
  6
CONTINUOUS
 10
9.3909883269202492
 20
82.449409723235846
 30
0.0
 40
3.5
 41
100.0
 71
4
 72
2
  1
PASO\~1\U+00ba:\~prolongamos\~las\~proyecciones\~(r'\~y\~r)\~para\~determinar\~las\~trazas\~vertical\~y
  7
ARIAL
 50
0.0
 73
0
 44
1.0
  0
MTEXT
  5
96
100
AcDbEntity
100
AcDbMText
  8
PASO1
 62
7
420
16777215
370
-1
  6
CONTINUOUS
 10
9.3909883269202563
 20
77.199409723235846
 30
0.0
 40
3.5
 41
100.0
 71
4
 72
2
  1
horizontal(v'-v\~y\~h'-h).
  7
ARIAL
 50
0.0
 73
0
 44
1.0
  0
LINE
  5
97
100
AcDbEntity
100
AcDbLine
  8
PASO1
 62
142
420
31909
370
-1
  6
CONTINUOUS
 10
78.956681170027167
 20
187.9418698077902
 30
0.0
 11
94.18491588937998
 21
195.8222150471756
 31
0.0
  0
MTEXT
  5
98
100
AcDbEntity
100
AcDbMText
  8
PASO1
 62
142
420
31909
370
-1
  6
CONTINUOUS
 10
150.3054139417994
 20
228.47670262532631
 30
0.0
 40
3.9999999999999978
 41
100.0
 71
4
 72
2
  1
v
  7
ARIAL
 50
0.0
 73
0
 44
1.0
  0
LINE
  5
99
100
AcDbEntity
100
AcDbLine
  8
PASO1
 62
92
420
42240
370
-1
  6
CONTINUOUS
 10
80.078535331557944
 20
249.26929471418271
 30
0.0
 11
94.18491588937998
 21
224.8363268771331
 31
0.0
  0
MTEXT
  5
9A
100
AcDbEntity
100
AcDbMText
  8
PASO1
 62
92
420
42240
370
-1
  6
CONTINUOUS
 10
94.312221572599768
 20
229.97843575400219
 30
0.0
 40
3.9999999999999978
 41
100.0
 71
4
 72
2
  1
h'
  7
ARIAL
 50
0.0
 73
0
 44
1.0
  0
LINE
  5
9B
100
AcDbEntity
100
AcDbLine
  8
PASO1
 62
7
420
16777215
370
-1
  6
DASHED2
 10
94.18491588937998
 20
224.8363268771331
 30
0.0
 11
94.18491588937998
 21
195.8222150471756
 31
0.0
  0
LINE
  5
9C
100
AcDbEntity
100
AcDbLine
  8
PASO1
 62
7
420
16777215
370
-1
  6
DASHED2
 10
150.25272658781111
 20
224.8363268771331
 30
0.0
 11
150.25272658781111
 21
127.72403007829639
 31
0.0
  0
LINE
  5
9D
100
AcDbEntity
100
AcDbLine
  8
PASO1
 62
92
420
42240
370
-1
  6
DASHED
 10
94.18491588937998
 20
224.8363268771331
 30
0.0
 11
150.25272658781111
 21
127.72403007829639
 31
0.0
  0
LINE
  5
9E
100
AcDbEntity
100
AcDbLine
  8
PASO3
 62
6
420
16711935
370
-1
  6
CONTINUOUS
 10
70.296500501971465
 20
266.2122760404348
 30
0.0
 11
150.25272658781111
 21
224.8363268771331
 31
0.0
  0
MTEXT
  5
9F
100
AcDbEntity
100
AcDbMText
  8
PASO1
 62
142
420
31909
370
-1
  6
CONTINUOUS
 10
97.030767534837295
 20
193.97999823466401
 30
0.0
 40
3.9999999999999978
 41
100.0
 71
4
 72
2
  1
h
  7
ARIAL
 50
0.0
 73
0
 44
1.0
  0
MTEXT
  5
A0
100
AcDbEntity
100
AcDbMText
  8
PASO1
 62
92
420
42240
370
-1
  6
CONTINUOUS
 10
152.5088813661412
 20
130.49137497705371
 30
0.0
 40
3.9999999999999978
 41
100.0
 71
4
 72
2
  1
v'
  7
ARIAL
 50
0.0
 73
0
 44
1.0
  0
MTEXT
  5
A1
100
AcDbEntity
100
AcDbMText
  8
PASO2
 62
7
420
16777215
370
-1
  6
CONTINUOUS
 10
9.3909883269202492
 20
65.253580826762587
 30
0.0
 40
3.5
 41
100.0
 71
4
 72
2
  1
PASO\~2\U+00ba:\~el\~punto\~intersecci\U+00f3n\~A\~de\~las\~dos\~proyecciones\~determinamos\~la\~intersecci\U+00f3n
  7
ARIAL
 50
0.0
 73
0
 44
1.0
  0
MTEXT
  5
A2
100
AcDbEntity
100
AcDbMText
  8
PASO2
 62
7
420
16777215
370
-1
  6
CONTINUOUS
 10
9.3909883269202563
 20
60.003580826762587
 30
0.0
 40
3.5
 41
100.0
 71
4
 72
2
  1
de\~la\~recta\~R\~con\~el\~2\U+00ba\~plano\~bisector.
  7
ARIAL
 50
0.0
 73
0
 44
1.0
  0
MTEXT
  5
A3
100
AcDbEntity
100
AcDbMText
  8
PASO2
 62
92
420
42240
370
-1
  6
CONTINUOUS
 10
110.9610359754104
 20
201.83021431389221
 30
0.0
 40
3.9999999999999978
 41
100.0
 71
4
 72
2
  1
a'
  7
ARIAL
 50
0.0
 73
0
 44
1.0
  0
MTEXT
  5
A4
100
AcDbEntity
100
AcDbMText
  8
PASO2
 62
142
420
31909
370
-1
  6
CONTINUOUS
 10
118.8613429694342
 20
201.83021431389221
 30
0.0
 40
3.9999999999999978
 41
100.0
 71
4
 72
2
  1
a
  7
ARIAL
 50
0.0
 73
0
 44
1.0
  0
LINE
  5
A5
100
AcDbEntity
100
AcDbLine
  8
PASO1
 62
142
420
31909
370
-1
  6
DASHED
 10
94.18491588937998
 20
195.8222150471756
 30
0.0
 11
150.25272658781111
 21
224.8363268771331
 31
0.0
  0
MTEXT
  5
A6
100
AcDbEntity
100
AcDbMText
  8
PASO3
 62
7
420
16777215
370
-1
  6
CONTINUOUS
 10
9.3909883269202492
 20
44.182496455441182
 30
0.0
 40
3.5
 41
100.0
 71
4
 72
2
  1
PASO\~3\U+00ba:\~la\~recta\~sim\U+00e9tria\~de\~la\~proyecci\U+00f3n\~horizontal\~(r)\~determinamos\~en\~su\~intersecci\U+00f3n
  7
ARIAL
 50
0.0
 73
0
 44
1.0
  0
MTEXT
  5
A7
100
AcDbEntity
100
AcDbMText
  8
PASO3
 62
7
420
16777215
370
-1
  6
CONTINUOUS
 10
9.3909883269202563
 20
38.932496455441203
 30
0.0
 40
3.5
 41
100.0
 71
4
 72
2
  1
con\~la\~proyecci\U+00f3n\~vertical\~r'\~el\~punto\~B,\~que\~tendr\U+00e1\~la\~misma\~cota\~y\~alejamiento,\~luego
  7
ARIAL
 50
0.0
 73
0
 44
1.0
  0
MTEXT
  5
A8
100
AcDbEntity
100
AcDbMText
  8
PASO3
 62
7
420
16777215
370
-1
  6
CONTINUOUS
 10
9.3909883269202581
 20
33.682496455441203
 30
0.0
 40
3.5
 41
100.0
 71
4
 72
2
  1
pertenecer\U+00e1\~al\~1\U+00ba\~plano\~bisector,\~siendo\~la\~intersecci\U+00f3n\~de\~la\~recta\~R\~con\~dicho\~plano.
  7
ARIAL
 50
0.0
 73
0
 44
1.0
  0
LINE
  5
A9
100
AcDbEntity
100
AcDbLine
  8
PASO3
 62
7
420
16777215
370
-1
  6
DASHED
 10
70.296500501971465
 20
266.2122760404348
 30
0.0
 11
70.296500501971465
 21
183.46037771383141
 31
0.0
  0
MTEXT
  5
AA
100
AcDbEntity
100
AcDbMText
  8
PASO3
 62
92
420
42240
370
-1
  6
DASHED2
 10
71.745929567630412
 20
269.00784003215921
 30
0.0
 40
3.9999999999999978
 41
100.0
 71
4
 72
2
  1
b'
  7
ARIAL
 50
0.0
 73
0
 44
1.0
  0
MTEXT
  5
AB
100
AcDbEntity
100
AcDbMText
  8
PASO3
 62
142
420
31909
370
-1
  6
DASHED2
 10
66.286033809865799
 20
185.84942772159059
 30
0.0
 40
3.9999999999999978
 41
100.0
 71
4
 72
2
  1
b
  7
ARIAL
 50
0.0
 73
0
 44
1.0
  0
MTEXT
  5
AC
100
AcDbEntity
100
AcDbMText
  8
PASO3
 62
6
420
16711935
370
-1
  6
CONTINUOUS
 10
122.9416851048509
 20
231.484137704185
 30
0.0
 40
3.9999999999999978
 41
100.0
 71
5
 72
2
  1
=
  7
ARIAL
 50
0.0
 73
0
 44
1.0
  0
ARC
  5
AD
100
AcDbEntity
  8
PASO3
 62
6
420
16711935
370
-1
  6
CONTINUOUS
100
AcDbCircle
 10
150.25272658781111
 20
224.8363268771331
 30
0.0
 40
32.60847515743685
100
AcDbArc
 50
152.63922527018261
 51
180.0
  0
MTEXT
  5
AE
100
AcDbEntity
100
AcDbMText
  8
PASO3
 62
6
420
16711935
370
-1
  6
CONTINUOUS
 10
122.9416851048509
 20
218.1885160500812
 30
0.0
 40
3.9999999999999978
 41
100.0
 71
5
 72
2
  1
=
  7
ARIAL
 50
0.0
 73
0
 44
1.0
  0
ARC
  5
AF
100
AcDbEntity
  8
PASO3
 62
6
420
16711935
370
-1
  6
CONTINUOUS
100
AcDbCircle
 10
150.25272658781111
 20
224.8363268771331
 30
0.0
 40
32.60847515743685
100
AcDbArc
 50
180.0
 51
207.36077472981731
  0
MTEXT
  5
B0
100
AcDbEntity
100
AcDbMText
  8
PASO4
 62
7
420
16777215
370
-1
  6
CONTINUOUS
 10
9.3909883269202492
 20
16.531430802425039
 30
0.0
 40
3.5
 41
100.0
 71
4
 72
2
  1
PASO\~4\U+00ba:\~las\~trazas\~determina\~los\~cuadrantes\~por\~los\~que\~pasa\~la\~recta:\~1\U+00ba,\~4\U+00ba\~y\~3\U+00ba\~cuadrantes.
  7
ARIAL
 50
0.0
 73
0
 44
1.0
  0
LINE
  5
B1
100
AcDbEntity
100
AcDbLine
  8
PASO4
 62
142
420
31909
370
-1
  6
DASHED
 10
150.25272658781111
 20
224.8363268771331
 30
0.0
 11
190.1002516649169
 21
245.4567244694818
 31
0.0
  0
LINE
  5
B2
100
AcDbEntity
100
AcDbLine
  8
PASO4
 62
92
420
42240
370
-1
  6
DASHED
 10
150.25272658781111
 20
127.72403007829639
 30
0.0
 11
163.82342950488649
 21
104.2188831314986
 31
0.0
  0
MTEXT
  5
B3
100
AcDbEntity
100
AcDbMText
  8
PASO4
 62
6
420
16711935
370
-1
  6
CONTINUOUS
 10
177.56301055919451
 20
101.2116908249277
 30
0.0
 40
3.9999999999999978
 41
100.0
 71
5
 72
2
  1
3\U+00ba\~C
  7
ARIAL
 50
0.0
 73
0
 44
1.0
  0
LINE
  5
B4
100
AcDbEntity
100
AcDbLine
  8
PASO4
 62
7
420
16777215
370
-1
  6
CONTINUOUS
 10
150.25272658781111
 20
222.83632687713279
 30
0.0
 11
150.25272658781131
 21
93.7116908249277
 31
0.0
  0
LINE
  5
B5
100
AcDbEntity
100
AcDbLine
  8
PASO4
 62
6
420
16711935
370
-1
  6
CONTINUOUS
 10
195.1470349695457
 20
96.711690824927715
 30
0.0
 11
150.25272658781131
 21
96.711690824927715
 31
0.0
  0
MTEXT
  5
B6
100
AcDbEntity
100
AcDbMText
  8
PASO4
 62
6
420
16711935
370
-1
  6
CONTINUOUS
 10
51.287991498538112
 20
101.2116908249278
 30
0.0
 40
3.9999999999999978
 41
100.0
 71
5
 72
2
  1
1\U+00ba\~C
  7
ARIAL
 50
0.0
 73
0
 44
1.0
  0
LINE
  5
B7
100
AcDbEntity
100
AcDbLine
  8
PASO4
 62
6
420
16711935
370
-1
  6
CONTINUOUS
 10
94.18491588937998
 20
222.83632687713279
 30
0.0
 11
94.184915889380122
 21
93.711690824927771
 31
0.0
  0
LINE
  5
B8
100
AcDbEntity
100
AcDbLine
  8
PASO4
 62
6
420
16711935
370
-1
  6
CONTINUOUS
 10
94.184915889380122
 20
96.711690824927771
 30
0.0
 11
8.3910671076960792
 21
96.711690824927771
 31
0.0
  0
INSERT
  5
B9
100
AcDbEntity
100
AcDbBlockReference
  8
PASO1
 62
142
420
31909
370
-1
  6
CONTINUOUS
  2
Mkr_48986
 10
150.25272658781111
 20
224.8363268771331
 30
0.0
 41
0.1181102362204724
 42
0.1181102362204724
 43
1.0
 50
45.0
  0
INSERT
  5
BA
100
AcDbEntity
100
AcDbBlockReference
  8
PASO1
 62
92
420
42240
370
-1
  6
CONTINUOUS
  2
Mkr_489860
 10
94.18491588937998
 20
224.8363268771331
 30
0.0
 41
0.1181102362204724
 42
0.1181102362204724
 43
1.0
 50
45.0
  0
INSERT
  5
BB
100
AcDbEntity
100
AcDbBlockReference
  8
PASO1
 62
92
420
42240
370
-1
  6
CONTINUOUS
  2
Mkr_489861
 10
150.25272658781111
 20
127.72403007829639
 30
0.0
 41
0.1181102362204724
 42
0.1181102362204724
 43
1.0
  0
INSERT
  5
BC
100
AcDbEntity
100
AcDbBlockReference
  8
PASO1
 62
7
420
16777215
370
-1
  6
CONTINUOUS
  2
Mkr_489862
 10
94.18491588937998
 20
195.8222150471756
 30
0.0
 41
0.1181102362204724
 42
0.1181102362204724
 43
1.0
  0
INSERT
  5
BD
100
AcDbEntity
100
AcDbBlockReference
  8
PASO2
 62
7
420
16777215
370
-1
  6
CONTINUOUS
  2
Mkr_489863
 10
106.47906116214369
 20
202.46344266594701
 30
0.0
 41
0.1181102362204724
 42
0.1181102362204724
 43
1.0
  0
LINE
  5
BE
100
AcDbEntity
100
AcDbLine
  8
PASO2
 62
7
420
16777215
370
-1
  6
CONTINUOUS
 10
115.45617170956289
 20
200.48777740157391
 30
0.0
 11
118.24704834141529
 21
200.48777740157391
 31
0.0
  0
LINE
  5
BF
100
AcDbEntity
100
AcDbLine
  8
PASO2
 62
7
420
16777215
370
-1
  6
CONTINUOUS
 10
115.45617170956289
 20
202.6219771788727
 30
0.0
 11
118.24704834141529
 21
202.6219771788727
 31
0.0
  0
LINE
  5
C0
100
AcDbEntity
100
AcDbLine
  8
PASO2
 62
7
420
16777215
370
-1
  6
CONTINUOUS
 10
115.45617170956289
 20
201.55487729022329
 30
0.0
 11
118.24704834141529
 21
201.55487729022329
 31
0.0
  0
INSERT
  5
C1
100
AcDbEntity
100
AcDbBlockReference
  8
PASO3
 62
92
420
42240
370
-1
  6
CONTINUOUS
  2
Mkr_489864
 10
70.296500501971465
 20
266.2122760404348
 30
0.0
 41
0.1181102362204724
 42
0.1181102362204724
 43
1.0
  0
INSERT
  5
C2
100
AcDbEntity
100
AcDbBlockReference
  8
PASO3
 62
142
420
31909
370
-1
  6
CONTINUOUS
  2
Mkr_489865
 10
70.296500501971465
 20
183.46037771383141
 30
0.0
 41
0.1181102362204724
 42
0.1181102362204724
 43
1.0
  0
INSERT
  5
C3
100
AcDbEntity
100
AcDbBlockReference
  8
PASO3
 62
6
420
16711935
370
-1
  6
CONTINUOUS
  2
Mkr_489866
 10
121.2921539000813
 20
239.82291693931509
 30
0.0
 41
0.078740157480315
 42
0.078740157480315
 43
1.0
 50
244.39630772302522
  0
INSERT
  5
C4
100
AcDbEntity
100
AcDbBlockReference
  8
PASO3
 62
6
420
16711935
370
-1
  6
CONTINUOUS
  2
Mkr_489867
 10
117.6442514303744
 20
224.8363268771331
 30
0.0
 41
0.078740157480315
 42
0.078740157480315
 43
1.0
 50
88.242917547157447
  0
INSERT
  5
C5
100
AcDbEntity
100
AcDbBlockReference
  8
PASO3
 62
6
420
16711935
370
-1
  6
CONTINUOUS
  2
Mkr_489868
 10
117.6442514303744
 20
224.8363268771331
 30
0.0
 41
0.078740157480315
 42
0.078740157480315
 43
1.0
 50
271.75708245284261
  0
INSERT
  5
C6
100
AcDbEntity
100
AcDbBlockReference
  8
PASO3
 62
6
420
16711935
370
-1
  6
CONTINUOUS
  2
Mkr_489869
 10
121.2921539000813
 20
209.849736814951
 30
0.0
 41
0.078740157480315
 42
0.078740157480315
 43
1.0
 50
115.6036922769748
  0
MTEXT
  5
C7
100
AcDbEntity
100
AcDbMText
  8
PASO4
 62
6
420
16711935
370
-1
  6
CONTINUOUS
 10
122.21882123859569
 20
101.2116908249278
 30
0.0
 40
3.9999999999999978
 41
100.0
 71
5
 72
2
  1
4\U+00baC
  7
ARIAL
 50
0.0
 73
0
 44
1.0
  0
LINE
  5
C8
100
AcDbEntity
100
AcDbLine
  8
PASO4
 62
6
420
16711935
370
-1
  6
CONTINUOUS
 10
150.25272658781111
 20
222.83632687713279
 30
0.0
 11
150.25272658781131
 21
93.711690824927771
 31
0.0
  0
LINE
  5
C9
100
AcDbEntity
100
AcDbLine
  8
PASO4
 62
6
420
16711935
370
-1
  6
CONTINUOUS
 10
94.18491588937998
 20
222.83632687713279
 30
0.0
 11
94.184915889380122
 21
93.711690824927771
 31
0.0
  0
LINE
  5
CA
100
AcDbEntity
100
AcDbLine
  8
PASO4
 62
6
420
16711935
370
-1
  6
CONTINUOUS
 10
150.25272658781131
 20
96.711690824927771
 30
0.0
 11
94.184915889380122
 21
96.711690824927771
 31
0.0
  0
INSERT
  5
CB
100
AcDbEntity
100
AcDbBlockReference
  8
PASO4
 62
6
420
16711935
370
-1
  6
CONTINUOUS
  2
Mkr_4898610
 10
195.1470349695457
 20
96.711690824927715
 30
0.0
 41
0.078740157480315
 42
0.078740157480315
 43
1.0
 50
180.0
  0
INSERT
  5
CC
100
AcDbEntity
100
AcDbBlockReference
  8
PASO4
 62
6
420
16711935
370
-1
  6
CONTINUOUS
  2
Mkr_4898613
 10
8.3910671076960774
 20
96.711690824927771
 30
0.0
 41
0.078740157480315
 42
0.078740157480315
 43
1.0
  0
INSERT
  5
CD
100
AcDbEntity
100
AcDbBlockReference
  8
PASO4
 62
6
420
16711935
370
-1
  6
CONTINUOUS
  2
Mkr_49033
 10
94.184915889380122
 20
96.711690824927771
 30
0.0
 41
0.078740157480315
 42
0.078740157480315
 43
1.0
  0
INSERT
  5
CE
100
AcDbEntity
100
AcDbBlockReference
  8
PASO4
 62
6
420
16711935
370
-1
  6
CONTINUOUS
  2
Mkr_49036
 10
150.25272658781131
 20
96.711690824927771
 30
0.0
 41
0.078740157480315
 42
0.078740157480315
 43
1.0
 50
180.0
  0
LINE
  5
CF
100
AcDbEntity
100
AcDbLine
  8
0
 62
7
420
16777215
370
-1
  6
CONTINUOUS
 10
8.3910671076959868
 20
224.8363268771331
 30
0.0
 11
178.39106710769599
 21
224.8363268771331
 31
0.0
  0
LINE
  5
D0
100
AcDbEntity
100
AcDbLine
  8
0
 62
7
420
16777215
370
-1
  6
CONTINUOUS
 10
168.84433269483699
 20
221.6193561433447
 30
0.0
 11
178.39106710769599
 21
221.6193561433447
 31
0.0
  0
LINE
  5
D1
100
AcDbEntity
100
AcDbLine
  8
0
 62
7
420
16777215
370
-1
  6
CONTINUOUS
 10
8.3910671076959868
 20
221.6193561433447
 30
0.0
 11
17.937801520554871
 21
221.6193561433447
 31
0.0
  0
LINE
  5
D2
100
AcDbEntity
100
AcDbLine
  8
0
 62
92
420
42240
370
-1
  6
CONTINUOUS
 10
57.979219915740991
 20
287.54643182686777
 30
0.0
 11
80.078535331557944
 21
249.26929471418271
 31
0.0
  0
LINE
  5
D3
100
AcDbEntity
100
AcDbLine
  8
0
 62
142
420
31909
370
-1
  6
CONTINUOUS
 10
21.126827681633738
 20
158.0159316389713
 30
0.0
 11
78.956681170027167
 21
187.9418698077902
 31
0.0
  0
MTEXT
  5
D4
100
AcDbEntity
100
AcDbMText
  8
0
 62
92
420
42240
370
-1
  6
CONTINUOUS
 10
63.161011429247353
 20
282.1348619120368
 30
0.0
 40
3.9999999999999978
 41
100.0
 71
7
 72
2
  1
r'
  7
ARIAL
 50
0.0
 73
0
 44
1.0
  0
MTEXT
  5
D5
100
AcDbEntity
100
AcDbMText
  8
0
 62
142
420
31909
370
-1
  6
CONTINUOUS
 10
50.639058983638769
 20
175.3107979458978
 30
0.0
 40
3.9999999999999978
 41
100.0
 71
7
 72
2
  1
r
  7
ARIAL
 50
0.0
 73
0
 44
1.0
  0
ENDSEC
  0
SECTION
  2
OBJECTS
  0
DICTIONARY
  5
C
100
AcDbDictionary
280
0
281
1
  3
ACAD_GROUP
350
D
  3
ACAD_LAYOUT
350
1A
  3
ACAD_MLINESTYLE
350
17
  3
ACAD_PLOTSETTINGS
350
19
  3
ACAD_PLOTSTYLENAME
350
E
  3
AcDbVariableDictionary
350
D6
  0
DICTIONARY
  5
D
100
AcDbDictionary
280
0
281
1
  0
ACDBDICTIONARYWDFLT
  5
E
100
AcDbDictionary
281
1
  3
Normal
350
F
100
AcDbDictionaryWithDefault
340
F
  0
ACDBPLACEHOLDER
  5
F
  0
DICTIONARY
  5
17
100
AcDbDictionary
280
0
281
1
  3
Standard
350
18
  0
MLINESTYLE
  5
18
100
AcDbMlineStyle
  2
STANDARD
 70
0
  3

 62
256
 51
90.0
 52
90.0
 71
2
 49
0.5
 62
256
  6
BYLAYER
 49
-0.5
 62
256
  6
BYLAYER
  0
DICTIONARY
  5
19
100
AcDbDictionary
280
0
281
1
  0
DICTIONARY
  5
1A
100
AcDbDictionary
281
1
  3
Layout1
350
1E
  3
Layout2
350
26
  3
Model
350
22
  0
LAYOUT
  5
1E
100
AcDbPlotSettings
  1

  2
C:\Program Files\AutoCAD 2002\plotters\DWF ePlot (optimized for plotting).pc3
  4

  6

 40
0.0
 41
0.0
 42
0.0
 43
0.0
 44
0.0
 45
0.0
 46
0.0
 47
0.0
 48
0.0
 49
0.0
140
0.0
141
0.0
142
1.0
143
1.0
 70
688
 72
0
 73
0
 74
5
  7

 75
16
147
1.0
148
0.0
149
0.0
100
AcDbLayout
  1
Layout1
 70
1
 71
1
 10
0.0
 20
0.0
 11
420.0
 21
297.0
 12
0.0
 22
0.0
 32
0.0
 14
100000000000000000000.0
 24
100000000000000000000.0
 34
100000000000000000000.0
 15
-100000000000000000000.0
 25
-100000000000000000000.0
 35
-100000000000000000000.0
146
0.0
 13
0.0
 23
0.0
 33
0.0
 16
1.0
 26
0.0
 36
0.0
 17
0.0
 27
1.0
 37
0.0
 76
0
330
1B
  0
LAYOUT
  5
22
100
AcDbPlotSettings
  1

  2
C:\Program Files\AutoCAD 2002\plotters\DWF ePlot (optimized for plotting).pc3
  4

  6

 40
0.0
 41
0.0
 42
0.0
 43
0.0
 44
0.0
 45
0.0
 46
0.0
 47
0.0
 48
0.0
 49
0.0
140
0.0
141
0.0
142
1.0
143
1.0
 70
1712
 72
0
 73
0
 74
0
  7

 75
0
147
1.0
148
0.0
149
0.0
100
AcDbLayout
  1
Model
 70
1
 71
0
 10
0.0
 20
0.0
 11
12.0
 21
9.0
 12
0.0
 22
0.0
 32
0.0
 14
0.0
 24
0.0
 34
0.0
 15
0.0
 25
0.0
 35
0.0
146
0.0
 13
0.0
 23
0.0
 33
0.0
 16
1.0
 26
0.0
 36
0.0
 17
0.0
 27
1.0
 37
0.0
 76
0
330
1F
  0
LAYOUT
  5
26
100
AcDbPlotSettings
  1

  2
C:\Program Files\AutoCAD 2002\plotters\DWF ePlot (optimized for plotting).pc3
  4

  6

 40
0.0
 41
0.0
 42
0.0
 43
0.0
 44
0.0
 45
0.0
 46
0.0
 47
0.0
 48
0.0
 49
0.0
140
0.0
141
0.0
142
1.0
143
1.0
 70
688
 72
0
 73
0
 74
5
  7

 75
16
147
1.0
148
0.0
149
0.0
100
AcDbLayout
  1
Layout2
 70
1
 71
2
 10
0.0
 20
0.0
 11
12.0
 21
9.0
 12
0.0
 22
0.0
 32
0.0
 14
0.0
 24
0.0
 34
0.0
 15
0.0
 25
0.0
 35
0.0
146
0.0
 13
0.0
 23
0.0
 33
0.0
 16
1.0
 26
0.0
 36
0.0
 17
0.0
 27
1.0
 37
0.0
 76
0
330
23
  0
DICTIONARY
  5
D6
100
AcDbDictionary
281
1
  3
DIMASSOC
350
D8
  3
HIDETEXT
350
D7
  0
DICTIONARYVAR
  5
D7
100
DictionaryVariables
280
0
  1
2
  0
DICTIONARYVAR
  5
D8
100
DictionaryVariables
280
0
  1
1
  0
ENDSEC
  0
EOF
