999
dxflib 2.2.0.0
  0
SECTION
  2
HEADER
  9
$ACADVER
  1
AC1015
  9
$HANDSEED
  5
FFFF
  9
$SPLINESEGS
 70
8
  9
$DIMEXE
 40
1.25
  9
$DIMAZIN
 70
8
  9
$DIMZIN
 70
8
  9
$DIMLUNIT
 70
2
  9
$GRIDMODE
 70
0
  9
$INSUNITS
 70
4
  9
$DIMADEC
 70
2
  9
$DIMASZ
 40
2.5
  9
$DIMGAP
 40
0.625
  9
$DIMTXT
 40
2.5
  9
$GRIDUNIT
 10
0.0
 20
0.0
  9
$DIMEXO
 40
0.625
  9
$LUPREC
 70
4
  9
$PINSBASE
 10
-0.0533345352452912
 20
0.219858243622582
 30
0.0
  9
$CLAYER
  8
cotas
  9
$DIMAUNIT
 70
0
  9
$AUPREC
 70
2
  9
$PLIMMIN
 10
0.0
 20
0.0
  9
$LUNITS
 70
2
  9
$PLIMMAX
 10
210.0
 20
297.0
  9
$DIMSTYLE
  2
Standard
  9
$AUNITS
 70
0
  9
$CLAYER
  8
0
  0
ENDSEC
  0
SECTION
  2
TABLES
  0
TABLE
  2
VPORT
  5
8
100
AcDbSymbolTable
 70
1
  0
VPORT
  5
30
100
AcDbSymbolTableRecord
100
AcDbViewportTableRecord
  2
*Active
 70
0
 10
0.0
 20
0.0
 11
1.0
 21
1.0
 12
286.30555555555549
 22
148.5
 13
0.0
 23
0.0
 14
10.0
 24
10.0
 15
10.0
 25
10.0
 16
0.0
 26
0.0
 36
1.0
 17
0.0
 27
0.0
 37
0.0
 40
297.0
 41
1.92798353909465
 42
50.0
 43
0.0
 44
0.0
 50
0.0
 51
0.0
 71
0
 72
100
 73
1
 74
3
 75
1
 76
1
 77
0
 78
0
281
0
 65
1
110
0.0
120
0.0
130
0.0
111
1.0
121
0.0
131
0.0
112
0.0
122
1.0
132
0.0
 79
0
146
0.0
  0
ENDTAB
  0
TABLE
  2
LTYPE
  5
5
100
AcDbSymbolTable
 70
21
  0
LTYPE
  5
14
100
AcDbSymbolTableRecord
100
AcDbLinetypeTableRecord
  2
ByBlock
 70
0
  3

 72
65
 73
0
 40
0.0
  0
LTYPE
  5
15
100
AcDbSymbolTableRecord
100
AcDbLinetypeTableRecord
  2
ByLayer
 70
0
  3

 72
65
 73
0
 40
0.0
  0
LTYPE
  5
16
100
AcDbSymbolTableRecord
100
AcDbLinetypeTableRecord
  2
CONTINUOUS
 70
0
  3
Solid line
 72
65
 73
0
 40
0.0
  0
LTYPE
  5
31
100
AcDbSymbolTableRecord
100
AcDbLinetypeTableRecord
  2
DOT
 70
0
  3
Dot . . . . . . . . . . . . . . . . . . . . . .
 72
65
 73
2
 40
6.3499999999999996
 49
0.0
 74
0
 49
-6.3499999999999996
 74
0
  0
LTYPE
  5
32
100
AcDbSymbolTableRecord
100
AcDbLinetypeTableRecord
  2
DOT2
 70
0
  3
Dot (.5x) .....................................
 72
65
 73
2
 40
3.1749999999999998
 49
0.0
 74
0
 49
-3.1749999999999998
 74
0
  0
LTYPE
  5
33
100
AcDbSymbolTableRecord
100
AcDbLinetypeTableRecord
  2
DOTX2
 70
0
  3
Dot (2x) .  .  .  .  .  .  .  .  .  .  .  .  .
 72
65
 73
2
 40
12.699999999999999
 49
0.0
 74
0
 49
-12.699999999999999
 74
0
  0
LTYPE
  5
34
100
AcDbSymbolTableRecord
100
AcDbLinetypeTableRecord
  2
DASHED
 70
0
  3
Dashed __ __ __ __ __ __ __ __ __ __ __ __ __ _
 72
65
 73
2
 40
19.050000000000001
 49
12.699999999999999
 74
0
 49
-6.3499999999999996
 74
0
  0
LTYPE
  5
35
100
AcDbSymbolTableRecord
100
AcDbLinetypeTableRecord
  2
DASHED2
 70
0
  3
Dashed (.5x) _ _ _ _ _ _ _ _ _ _ _ _ _ _ _ _ _
 72
65
 73
2
 40
9.5250000000000004
 49
6.3499999999999996
 74
0
 49
-3.1749999999999998
 74
0
  0
LTYPE
  5
36
100
AcDbSymbolTableRecord
100
AcDbLinetypeTableRecord
  2
DASHEDX2
 70
0
  3
Dashed (2x) ____  ____  ____  ____  ____  ___
 72
65
 73
2
 40
38.100000000000001
 49
25.399999999999999
 74
0
 49
-12.699999999999999
 74
0
  0
LTYPE
  5
37
100
AcDbSymbolTableRecord
100
AcDbLinetypeTableRecord
  2
DASHDOT
 70
0
  3
Dash dot __ . __ . __ . __ . __ . __ . __ . __
 72
65
 73
4
 40
25.399999999999999
 49
12.699999999999999
 74
0
 49
-6.3499999999999996
 74
0
 49
0.0
 74
0
 49
-6.3499999999999996
 74
0
  0
LTYPE
  5
38
100
AcDbSymbolTableRecord
100
AcDbLinetypeTableRecord
  2
DASHDOT2
 70
0
  3
Dash dot (.5x) _._._._._._._._._._._._._._._.
 72
65
 73
4
 40
12.699999999999999
 49
6.3499999999999996
 74
0
 49
-3.1749999999999998
 74
0
 49
0.0
 74
0
 49
-3.1749999999999998
 74
0
  0
LTYPE
  5
39
100
AcDbSymbolTableRecord
100
AcDbLinetypeTableRecord
  2
DASHDOTX2
 70
0
  3
Dash dot (2x) ____  .  ____  .  ____  .  ___
 72
65
 73
4
 40
50.799999999999997
 49
25.399999999999999
 74
0
 49
-12.699999999999999
 74
0
 49
0.0
 74
0
 49
-12.699999999999999
 74
0
  0
LTYPE
  5
3A
100
AcDbSymbolTableRecord
100
AcDbLinetypeTableRecord
  2
DIVIDE
 70
0
  3
Divide ____ . . ____ . . ____ . . ____ . . ____
 72
65
 73
6
 40
31.75
 49
12.699999999999999
 74
0
 49
-6.3499999999999996
 74
0
 49
0.0
 74
0
 49
-6.3499999999999996
 74
0
 49
0.0
 74
0
 49
-6.3499999999999996
 74
0
  0
LTYPE
  5
3B
100
AcDbSymbolTableRecord
100
AcDbLinetypeTableRecord
  2
DIVIDE2
 70
0
  3
Divide (.5x) __..__..__..__..__..__..__..__.._
 72
65
 73
6
 40
15.875
 49
6.3499999999999996
 74
0
 49
-3.1749999999999998
 74
0
 49
0.0
 74
0
 49
-3.1749999999999998
 74
0
 49
0.0
 74
0
 49
-3.1749999999999998
 74
0
  0
LTYPE
  5
3C
100
AcDbSymbolTableRecord
100
AcDbLinetypeTableRecord
  2
DIVIDEX2
 70
0
  3
Divide (2x) ________  .  .  ________  .  .  _
 72
65
 73
6
 40
63.5
 49
25.399999999999999
 74
0
 49
-12.699999999999999
 74
0
 49
0.0
 74
0
 49
-12.699999999999999
 74
0
 49
0.0
 74
0
 49
-12.699999999999999
 74
0
  0
LTYPE
  5
3D
100
AcDbSymbolTableRecord
100
AcDbLinetypeTableRecord
  2
CENTER
 70
0
  3
Center ____ _ ____ _ ____ _ ____ _ ____ _ ____
 72
65
 73
4
 40
50.799999999999997
 49
31.75
 74
0
 49
-6.3499999999999996
 74
0
 49
6.3499999999999996
 74
0
 49
-6.3499999999999996
 74
0
  0
LTYPE
  5
3E
100
AcDbSymbolTableRecord
100
AcDbLinetypeTableRecord
  2
CENTER2
 70
0
  3
Center (.5x) ___ _ ___ _ ___ _ ___ _ ___ _ ___
 72
65
 73
4
 40
28.574999999999999
 49
19.050000000000001
 74
0
 49
-3.1749999999999998
 74
0
 49
3.1749999999999998
 74
0
 49
-3.1749999999999998
 74
0
  0
LTYPE
  5
3F
100
AcDbSymbolTableRecord
100
AcDbLinetypeTableRecord
  2
CENTERX2
 70
0
  3
Center (2x) ________  __  ________  __  _____
 72
65
 73
4
 40
101.59999999999999
 49
63.5
 74
0
 49
-12.699999999999999
 74
0
 49
12.699999999999999
 74
0
 49
-12.699999999999999
 74
0
  0
LTYPE
  5
40
100
AcDbSymbolTableRecord
100
AcDbLinetypeTableRecord
  2
BORDER
 70
0
  3
Border __ __ . __ __ . __ __ . __ __ . __ __ .
 72
65
 73
6
 40
44.450000000000003
 49
12.699999999999999
 74
0
 49
-6.3499999999999996
 74
0
 49
12.699999999999999
 74
0
 49
-6.3499999999999996
 74
0
 49
0.0
 74
0
 49
-6.3499999999999996
 74
0
  0
LTYPE
  5
41
100
AcDbSymbolTableRecord
100
AcDbLinetypeTableRecord
  2
BORDER2
 70
0
  3
Border (.5x) __.__.__.__.__.__.__.__.__.__.__.
 72
65
 73
6
 40
22.225000000000001
 49
6.3499999999999996
 74
0
 49
-3.1749999999999998
 74
0
 49
6.3499999999999996
 74
0
 49
-3.1749999999999998
 74
0
 49
0.0
 74
0
 49
-3.1749999999999998
 74
0
  0
LTYPE
  5
42
100
AcDbSymbolTableRecord
100
AcDbLinetypeTableRecord
  2
BORDERX2
 70
0
  3
Border (2x) ____  ____  .  ____  ____  .  ___
 72
65
 73
6
 40
88.900000000000006
 49
25.399999999999999
 74
0
 49
-12.699999999999999
 74
0
 49
25.399999999999999
 74
0
 49
-12.699999999999999
 74
0
 49
0.0
 74
0
 49
-12.699999999999999
 74
0
  0
ENDTAB
  0
TABLE
  2
LAYER
  5
2
100
AcDbSymbolTable
 70
5
  0
LAYER
  5
10
100
AcDbSymbolTableRecord
100
AcDbLayerTableRecord
  2
0
 70
0
 62
7
420
0
  6
CONTINUOUS
370
25
390
F
  0
LAYER
  5
43
100
AcDbSymbolTableRecord
100
AcDbLayerTableRecord
  2
formato-margenes
 70
0
 62
7
420
0
  6
CONTINUOUS
370
80
390
F
  0
LAYER
  5
44
100
AcDbSymbolTableRecord
100
AcDbLayerTableRecord
  2
formato-tamaño
 70
0
 62
7
420
0
  6
CONTINUOUS
370
-3
390
F
  0
LAYER
  5
45
100
AcDbSymbolTableRecord
100
AcDbLayerTableRecord
  2
formato-cajetin-LINEAS
 70
0
 62
7
420
0
  6
CONTINUOUS
370
80
390
F
  0
LAYER
  5
46
100
AcDbSymbolTableRecord
100
AcDbLayerTableRecord
  2
formato-cajetin-TEXTO
 70
0
 62
7
420
0
  6
CONTINUOUS
370
-3
390
F
  0
ENDTAB
  0
TABLE
  2
STYLE
  5
3
100
AcDbSymbolTable
 70
1
  0
STYLE
  5
11
100
AcDbSymbolTableRecord
100
AcDbTextStyleTableRecord
  2
Standard
 70
0
 40
0.0
 41
0.75
 50
0.0
 71
0
 42
2.5
  3
txt
  4

  0
ENDTAB
  0
TABLE
  2
VIEW
  5
6
100
AcDbSymbolTable
 70
0
  0
ENDTAB
  0
TABLE
  2
UCS
  5
7
100
AcDbSymbolTable
 70
0
  0
ENDTAB
  0
TABLE
  2
APPID
  5
9
100
AcDbSymbolTable
 70
1
  0
APPID
  5
12
100
AcDbSymbolTableRecord
100
AcDbRegAppTableRecord
  2
ACAD
 70
0
  0
ENDTAB
  0
TABLE
  2
DIMSTYLE
  5
A
100
AcDbSymbolTable
 70
1
100
AcDbDimStyleTable
 71
0
  0
DIMSTYLE
105
27
100
AcDbSymbolTableRecord
100
AcDbDimStyleTableRecord
  2
Standard
 41
2.5
 42
0.625
 43
3.75
 44
1.25
 70
0
 73
0
 74
0
 77
1
 78
8
140
2.5
141
2.5
143
0.03937007874016
147
0.625
171
3
172
1
271
2
272
2
274
3
278
44
283
0
284
8
340
11
  0
ENDTAB
  0
TABLE
  2
BLOCK_RECORD
  5
1
100
AcDbSymbolTable
 70
1
  0
BLOCK_RECORD
  5
1F
100
AcDbSymbolTableRecord
100
AcDbBlockTableRecord
  2
*Model_Space
340
22
  0
BLOCK_RECORD
  5
1B
100
AcDbSymbolTableRecord
100
AcDbBlockTableRecord
  2
*Paper_Space
340
1E
  0
BLOCK_RECORD
  5
23
100
AcDbSymbolTableRecord
100
AcDbBlockTableRecord
  2
*Paper_Space0
340
26
  0
BLOCK_RECORD
  5
47
100
AcDbSymbolTableRecord
100
AcDbBlockTableRecord
  2
A4(m)-0
340
0
  0
BLOCK_RECORD
  5
48
100
AcDbSymbolTableRecord
100
AcDbBlockTableRecord
  2
A4(m)-1
340
0
  0
ENDTAB
  0
ENDSEC
  0
SECTION
  2
BLOCKS
  0
BLOCK
  5
20
100
AcDbEntity
  8
0
100
AcDbBlockBegin
  2
*Model_Space
 70
0
 10
0.0
 20
0.0
 30
0.0
  3
*Model_Space
  1

  0
ENDBLK
  5
21
100
AcDbEntity
  8
0
100
AcDbBlockEnd
  0
BLOCK
  5
1C
100
AcDbEntity
 67
1
  8
0
100
AcDbBlockBegin
  2
*Paper_Space
 70
0
 10
0.0
 20
0.0
 30
0.0
  3
*Paper_Space
  1

  0
ENDBLK
  5
1D
100
AcDbEntity
 67
1
  8
0
100
AcDbBlockEnd
  0
BLOCK
  5
24
100
AcDbEntity
  8
0
100
AcDbBlockBegin
  2
*Paper_Space0
 70
0
 10
0.0
 20
0.0
 30
0.0
  3
*Paper_Space0
  1

  0
ENDBLK
  5
25
100
AcDbEntity
  8
0
100
AcDbBlockEnd
  0
BLOCK
  5
49
100
AcDbEntity
  8
0
100
AcDbBlockBegin
  2
A4(m)-0
 70
0
 10
0.0
 20
0.0
 30
0.0
  3
A4(m)-0
  1

  0
ENDBLK
  5
4A
100
AcDbEntity
  8
0
100
AcDbBlockEnd
  0
BLOCK
  5
4B
100
AcDbEntity
  8
0
100
AcDbBlockBegin
  2
A4(m)-1
 70
0
 10
0.0
 20
0.0
 30
0.0
  3
A4(m)-1
  1

  0
LWPOLYLINE
  5
4C
  8
formato-margenes
 62
256
370
-1
  6
ByLayer
100
AcDbEntity
100
AcDbPolyline
 90
5
 70
0
 10
-80.000000000000099
 20
-143.49999999999991
 30
0.0
 10
-80.0
 20
143.5
 30
0.0
 10
99.999999999999972
 20
143.5
 30
0.0
 10
99.999999999999915
 20
-143.50000000000009
 30
0.0
 10
-80.000000000000099
 20
-143.49999999999991
 30
0.0
  0
LWPOLYLINE
  5
4D
  8
formato-tamaño
 62
256
370
-1
  6
ByLayer
100
AcDbEntity
100
AcDbPolyline
 90
5
 70
0
 10
-105.0000000000001
 20
-148.49999999999991
 30
0.0
 10
-105.0
 20
148.5
 30
0.0
 10
104.99999999999997
 20
148.5
 30
0.0
 10
104.99999999999991
 20
-148.50000000000009
 30
0.0
 10
-105.0000000000001
 20
-148.49999999999991
 30
0.0
  0
LINE
  5
4E
100
AcDbEntity
100
AcDbLine
  8
formato-cajetin-LINEAS
 62
256
370
-1
  6
ByLayer
 10
-60.0
 20
-89.499999999999972
 30
0.0
 11
-60.000000000000099
 21
-143.49999999999997
 31
0.0
  0
LINE
  5
4F
100
AcDbEntity
100
AcDbLine
  8
formato-cajetin-LINEAS
 62
256
370
-1
  6
ByLayer
 10
-80.000000000000099
 20
-143.49999999999991
 30
0.0
 11
99.999999999999801
 21
-143.5000000000002
 31
0.0
  0
LINE
  5
50
100
AcDbEntity
100
AcDbLine
  8
formato-cajetin-LINEAS
 62
256
370
-1
  6
ByLayer
 10
-80.0
 20
-89.500000000000085
 30
0.0
 11
99.999999999999915
 21
-89.500000000000085
 31
0.0
  0
LINE
  5
51
100
AcDbEntity
100
AcDbLine
  8
formato-cajetin-LINEAS
 62
256
370
-1
  6
ByLayer
 10
-80.0
 20
-89.500000000000085
 30
0.0
 11
-80.000000000000099
 21
-143.49999999999991
 31
0.0
  0
LINE
  5
52
100
AcDbEntity
100
AcDbLine
  8
formato-cajetin-LINEAS
 62
256
370
-1
  6
ByLayer
 10
99.999999999999801
 20
-143.5000000000002
 30
0.0
 11
99.999999999999915
 21
-89.500000000000085
 31
0.0
  0
LINE
  5
53
100
AcDbEntity
100
AcDbLine
  8
formato-cajetin-LINEAS
 62
256
370
-1
  6
ByLayer
 10
-80.0
 20
-113.49999999999997
 30
0.0
 11
99.999999999999915
 21
-113.49999999999997
 31
0.0
  0
LINE
  5
54
100
AcDbEntity
100
AcDbLine
  8
formato-cajetin-LINEAS
 62
256
370
-1
  6
ByLayer
 10
9.9999999999998863
 20
-113.50000000000009
 30
0.0
 11
9.9999999999998863
 21
-89.500000000000085
 31
0.0
  0
LINE
  5
55
100
AcDbEntity
100
AcDbLine
  8
formato-cajetin-LINEAS
 62
256
370
-1
  6
ByLayer
 10
40.0
 20
-143.49999999999997
 30
0.0
 11
39.999999999999886
 21
-113.50000000000009
 31
0.0
  0
MTEXT
  5
56
100
AcDbEntity
100
AcDbMText
  8
formato-cajetin-TEXTO
 62
256
370
-1
  6
ByLayer
 10
-57.00018234658819
 20
-94.187789045194478
 30
0.0
 40
2.5
 41
100.0
 71
7
 72
2
  1
Fecha
  7
ARIALI
 50
0.0
 73
0
 44
1.0
  0
MTEXT
  5
57
100
AcDbEntity
100
AcDbMText
  8
formato-cajetin-TEXTO
 62
256
370
-1
  6
ByLayer
 10
-39.000182346588105
 20
-94.187789045194592
 30
0.0
 40
2.5
 41
100.0
 71
7
 72
2
  1
Nombre
  7
ARIALI
 50
0.0
 73
0
 44
1.0
  0
MTEXT
  5
58
100
AcDbEntity
100
AcDbMText
  8
formato-cajetin-TEXTO
 62
256
370
-1
  6
ByLayer
 10
-78.926301563684106
 20
-99.842948259164558
 30
0.0
 40
2.5
 41
100.0
 71
7
 72
2
  1
Dibujado
  7
ARIALI
 50
0.0
 73
0
 44
1.0
  0
MTEXT
  5
59
100
AcDbEntity
100
AcDbMText
  8
formato-cajetin-TEXTO
 62
256
370
-1
  6
ByLayer
 10
-78.926301563684106
 20
-111.84294825916467
 30
0.0
 40
2.5
 41
100.0
 71
7
 72
2
  1
Normas
  7
ARIALI
 50
0.0
 73
0
 44
1.0
  0
MTEXT
  5
5A
100
AcDbEntity
100
AcDbMText
  8
formato-cajetin-TEXTO
 62
256
370
-1
  6
ByLayer
 10
-78.926301563684106
 20
-117.84294825916501
 30
0.0
 40
2.5
 41
100.0
 71
7
 72
2
  1
Escala
  7
ARIALI
 50
0.0
 73
0
 44
1.0
  0
LINE
  5
5B
100
AcDbEntity
100
AcDbLine
  8
formato-cajetin-LINEAS
 62
256
370
-1
  6
ByLayer
 10
40.000000000000085
 20
-137.50000000000009
 30
0.0
 11
99.999999999999915
 21
-137.50000000000009
 31
0.0
  0
LINE
  5
5C
100
AcDbEntity
100
AcDbLine
  8
formato-cajetin-LINEAS
 62
256
370
-1
  6
ByLayer
 10
40.0
 20
-131.50000000000009
 30
0.0
 11
99.999999999999915
 21
-131.50000000000009
 31
0.0
  0
LINE
  5
5D
100
AcDbEntity
100
AcDbLine
  8
formato-cajetin-LINEAS
 62
256
370
20
  6
ByLayer
 10
-80.0
 20
-95.500000000000085
 30
0.0
 11
9.9999999999998863
 21
-95.499999999999972
 31
0.0
  0
LINE
  5
5E
100
AcDbEntity
100
AcDbLine
  8
formato-cajetin-LINEAS
 62
256
370
20
  6
ByLayer
 10
-80.0
 20
-101.50000000000009
 30
0.0
 11
9.9999999999998863
 21
-101.50000000000009
 31
0.0
  0
LINE
  5
5F
100
AcDbEntity
100
AcDbLine
  8
formato-cajetin-LINEAS
 62
256
370
20
  6
ByLayer
 10
-80.000000000000099
 20
-107.49999999999997
 30
0.0
 11
9.9999999999998863
 21
-107.50000000000009
 31
0.0
  0
LINE
  5
60
100
AcDbEntity
100
AcDbLine
  8
formato-cajetin-LINEAS
 62
256
370
20
  6
ByLayer
 10
-42.0
 20
-89.500000000000085
 30
0.0
 11
-42.000000000000085
 21
-107.49999999999997
 31
0.0
  0
MTEXT
  5
61
100
AcDbEntity
100
AcDbMText
  8
formato-cajetin-TEXTO
 62
256
370
-1
  6
ByLayer
 10
-78.926301563684106
 20
-105.84294825916467
 30
0.0
 40
2.3999999999999999
 41
100.0
 71
7
 72
2
  1
Comprobado
  7
ARIALI
 50
0.0
 73
0
 44
1.0
  0
ENDBLK
  5
62
100
AcDbEntity
  8
0
100
AcDbBlockEnd
  0
ENDSEC
  0
SECTION
  2
ENTITIES
  0
LWPOLYLINE
  5
63
  8
formato-margenes
 62
256
370
-1
  6
ByLayer
100
AcDbEntity
100
AcDbPolyline
 90
5
 70
0
 10
25.000000000000156
 20
4.9999999999998863
 30
0.0
 10
25.000000000000242
 20
291.99999999999989
 30
0.0
 10
205.00000000000017
 20
291.99999999999983
 30
0.0
 10
205.00000000000003
 20
4.9999999999996589
 30
0.0
 10
25.000000000000156
 20
4.9999999999998863
 30
0.0
  0
LWPOLYLINE
  5
64
  8
formato-tamaño
 62
256
370
-1
  6
ByLayer
100
AcDbEntity
100
AcDbPolyline
 90
5
 70
0
 10
0.0
 20
0.0
 30
0.0
 10
0.0000000000002274
 20
296.99999999999983
 30
0.0
 10
210.00000000000017
 20
296.99999999999983
 30
0.0
 10
210.00000000000011
 20
-0.0000000000002558
 30
0.0
 10
0.0
 20
0.0
 30
0.0
  0
LINE
  5
65
100
AcDbEntity
100
AcDbLine
  8
formato-cajetin-LINEAS
 62
256
370
-1
  6
ByLayer
 10
25.000000000000156
 20
4.9999999999998863
 30
0.0
 11
205.00000000000006
 21
4.9999999999996305
 31
0.0
  0
LINE
  5
66
100
AcDbEntity
100
AcDbLine
  8
formato-cajetin-LINEAS
 62
256
370
-1
  6
ByLayer
 10
25.000000000000199
 20
22.999999999999886
 30
0.0
 11
205.00000000000011
 21
22.999999999999858
 31
0.0
  0
MTEXT
  5
67
100
AcDbEntity
100
AcDbMText
  8
formato-cajetin-TEXTO
 62
256
370
-1
  6
ByLayer
 10
26.300154109951986
 20
30.747724690772827
 30
0.0
 40
2.5
 41
100.0
 71
7
 72
2
  1
Dibujado
  7
ARIALI
 50
0.0
 73
0
 44
1.0
  0
MTEXT
  5
68
100
AcDbEntity
100
AcDbMText
  8
formato-cajetin-TEXTO
 62
256
370
-1
  6
ByLayer
 10
50.0
 20
36.611111111111114
 30
0.0
 40
2.5
 41
100.0
 71
7
 72
2
  1
Fecha
  7
ARIALI
 50
0.0
 73
0
 44
1.0
  0
LINE
  5
69
100
AcDbEntity
100
AcDbLine
  8
formato-cajetin-LINEAS
 62
256
370
-1
  6
ByLayer
 10
25.000000000000185
 20
40.999999999999773
 30
0.0
 11
205.00000000000006
 21
40.999999999999943
 31
0.0
  0
MTEXT
  5
6A
100
AcDbEntity
100
AcDbMText
  8
formato-cajetin-TEXTO
 62
256
370
-1
  6
ByLayer
 10
26.860736820565315
 20
18.979017760767135
 30
0.0
 40
2.5
 41
100.0
 71
7
 72
2
  1
Escala
  7
ARIALI
 50
0.0
 73
0
 44
1.0
  0
MTEXT
  5
6B
100
AcDbEntity
100
AcDbMText
  8
formato-cajetin-TEXTO
 62
256
370
-1
  6
ByLayer
 10
73.833333333333456
 20
36.611111111110972
 30
0.0
 40
2.5
 41
100.0
 71
7
 72
2
  1
Nombre
  7
ARIALI
 50
0.0
 73
0
 44
1.0
  0
MTEXT
  5
6C
100
AcDbEntity
100
AcDbMText
  8
formato-cajetin-TEXTO
 62
256
370
-1
  6
ByLayer
 10
25.766820776618637
 20
24.747724690772714
 30
0.0
 40
2.3999999999999999
 41
100.0
 71
7
 72
2
  1
Comprobado
  7
ARIALI
 50
0.0
 73
0
 44
1.0
  0
LINE
  5
6D
100
AcDbEntity
100
AcDbLine
  8
formato-cajetin-LINEAS
 62
256
370
35
  6
ByLayer
 10
115.00000000000006
 20
22.999999999999744
 30
0.0
 11
115.00000000000003
 21
40.999999999999858
 31
0.0
  0
LINE
  5
6E
100
AcDbEntity
100
AcDbLine
  8
formato-cajetin-LINEAS
 62
256
370
35
  6
ByLayer
 10
45.000000000000171
 20
40.999999999999773
 30
0.0
 11
45.00000000000005
 21
4.9999999999998579
 31
0.0
  0
LINE
  5
6F
100
AcDbEntity
100
AcDbLine
  8
formato-cajetin-LINEAS
 62
256
370
35
  6
ByLayer
 10
145.00000000000017
 20
4.9999999999997442
 30
0.0
 11
145.00000000000009
 21
22.999999999999716
 31
0.0
  0
LINE
  5
70
100
AcDbEntity
100
AcDbLine
  8
formato-cajetin-LINEAS
 62
256
370
35
  6
ByLayer
 10
70.000000000000171
 20
40.999999999999801
 30
0.0
 11
70.000000000000099
 21
22.999999999999886
 31
0.0
  0
LINE
  5
71
100
AcDbEntity
100
AcDbLine
  8
formato-cajetin-LINEAS
 62
256
370
35
  6
ByLayer
 10
25.000000000000114
 20
28.999999999999829
 30
0.0
 11
115.00000000000004
 21
28.999999999999744
 31
0.0
  0
LINE
  5
72
100
AcDbEntity
100
AcDbLine
  8
formato-cajetin-LINEAS
 62
256
370
30
  6
ByLayer
 10
25.000000000000199
 20
34.999999999999744
 30
0.0
 11
115.00000000000011
 21
34.999999999999744
 31
0.0
  0
LINE
  5
73
100
AcDbEntity
100
AcDbLine
  8
formato-cajetin-LINEAS
 62
256
370
30
  6
ByLayer
 10
145.00000000000017
 20
13.999999999999716
 30
0.0
 11
205.00000000000011
 21
13.999999999999744
 31
0.0
  0
MTEXT
  5
74
100
AcDbEntity
100
AcDbMText
  8
formato-cajetin-TEXTO
 62
256
370
-1
  6
ByLayer
 10
146.66480281122259
 20
19.315367387134387
 30
0.0
 40
2.5
 41
100.0
 71
1
 72
2
  1
Actividad
  7
standard
 50
0.0
 73
0
 44
1.0
  0
MTEXT
  5
75
100
AcDbEntity
100
AcDbMText
  8
formato-cajetin-TEXTO
 62
256
370
-1
  6
ByLayer
 10
147.36553119948928
 20
11.046772405587632
 30
0.0
 40
2.5
 41
100.0
 71
1
 72
2
  1
Curso
  7
standard
 50
0.0
 73
0
 44
1.0
  0
MTEXT
  5
76
100
AcDbEntity
100
AcDbMText
  8
formato-cajetin-TEXTO
 62
256
370
-1
  6
ByLayer
 10
120.60199082666769
 20
37.7922611199985
 30
0.0
 40
3.5
 41
100.0
 71
1
 72
2
  1
Instituto\~de\~Ense\U+00f1anzas\~a\PDistancia\~de\~Andaluc\U+00eda
  7
standard
 50
0.0
 73
0
 44
1.0
  0
ENDSEC
  0
SECTION
  2
OBJECTS
  0
DICTIONARY
  5
C
100
AcDbDictionary
280
0
281
1
  3
ACAD_GROUP
350
D
  3
ACAD_LAYOUT
350
1A
  3
ACAD_MLINESTYLE
350
17
  3
ACAD_PLOTSETTINGS
350
19
  3
ACAD_PLOTSTYLENAME
350
E
  3
AcDbVariableDictionary
350
77
  0
DICTIONARY
  5
D
100
AcDbDictionary
280
0
281
1
  0
ACDBDICTIONARYWDFLT
  5
E
100
AcDbDictionary
281
1
  3
Normal
350
F
100
AcDbDictionaryWithDefault
340
F
  0
ACDBPLACEHOLDER
  5
F
  0
DICTIONARY
  5
17
100
AcDbDictionary
280
0
281
1
  3
Standard
350
18
  0
MLINESTYLE
  5
18
100
AcDbMlineStyle
  2
STANDARD
 70
0
  3

 62
256
 51
90.0
 52
90.0
 71
2
 49
0.5
 62
256
  6
BYLAYER
 49
-0.5
 62
256
  6
BYLAYER
  0
DICTIONARY
  5
19
100
AcDbDictionary
280
0
281
1
  0
DICTIONARY
  5
1A
100
AcDbDictionary
281
1
  3
Layout1
350
1E
  3
Layout2
350
26
  3
Model
350
22
  0
LAYOUT
  5
1E
100
AcDbPlotSettings
  1

  2
C:\Program Files\AutoCAD 2002\plotters\DWF ePlot (optimized for plotting).pc3
  4

  6

 40
0.0
 41
0.0
 42
0.0
 43
0.0
 44
0.0
 45
0.0
 46
0.0
 47
0.0
 48
0.0
 49
0.0
140
0.0
141
0.0
142
1.0
143
1.0
 70
688
 72
0
 73
0
 74
5
  7

 75
16
147
1.0
148
0.0
149
0.0
100
AcDbLayout
  1
Layout1
 70
1
 71
1
 10
0.0
 20
0.0
 11
420.0
 21
297.0
 12
0.0
 22
0.0
 32
0.0
 14
100000000000000000000.0
 24
100000000000000000000.0
 34
100000000000000000000.0
 15
-100000000000000000000.0
 25
-100000000000000000000.0
 35
-100000000000000000000.0
146
0.0
 13
0.0
 23
0.0
 33
0.0
 16
1.0
 26
0.0
 36
0.0
 17
0.0
 27
1.0
 37
0.0
 76
0
330
1B
  0
LAYOUT
  5
22
100
AcDbPlotSettings
  1

  2
C:\Program Files\AutoCAD 2002\plotters\DWF ePlot (optimized for plotting).pc3
  4

  6

 40
0.0
 41
0.0
 42
0.0
 43
0.0
 44
0.0
 45
0.0
 46
0.0
 47
0.0
 48
0.0
 49
0.0
140
0.0
141
0.0
142
1.0
143
1.0
 70
1712
 72
0
 73
0
 74
0
  7

 75
0
147
1.0
148
0.0
149
0.0
100
AcDbLayout
  1
Model
 70
1
 71
0
 10
0.0
 20
0.0
 11
12.0
 21
9.0
 12
0.0
 22
0.0
 32
0.0
 14
0.0
 24
0.0
 34
0.0
 15
0.0
 25
0.0
 35
0.0
146
0.0
 13
0.0
 23
0.0
 33
0.0
 16
1.0
 26
0.0
 36
0.0
 17
0.0
 27
1.0
 37
0.0
 76
0
330
1F
  0
LAYOUT
  5
26
100
AcDbPlotSettings
  1

  2
C:\Program Files\AutoCAD 2002\plotters\DWF ePlot (optimized for plotting).pc3
  4

  6

 40
0.0
 41
0.0
 42
0.0
 43
0.0
 44
0.0
 45
0.0
 46
0.0
 47
0.0
 48
0.0
 49
0.0
140
0.0
141
0.0
142
1.0
143
1.0
 70
688
 72
0
 73
0
 74
5
  7

 75
16
147
1.0
148
0.0
149
0.0
100
AcDbLayout
  1
Layout2
 70
1
 71
2
 10
0.0
 20
0.0
 11
12.0
 21
9.0
 12
0.0
 22
0.0
 32
0.0
 14
0.0
 24
0.0
 34
0.0
 15
0.0
 25
0.0
 35
0.0
146
0.0
 13
0.0
 23
0.0
 33
0.0
 16
1.0
 26
0.0
 36
0.0
 17
0.0
 27
1.0
 37
0.0
 76
0
330
23
  0
DICTIONARY
  5
77
100
AcDbDictionary
281
1
  3
DIMASSOC
350
79
  3
HIDETEXT
350
78
  0
DICTIONARYVAR
  5
78
100
DictionaryVariables
280
0
  1
2
  0
DICTIONARYVAR
  5
79
100
DictionaryVariables
280
0
  1
1
  0
ENDSEC
  0
EOF
