999
dxflib 2.2.0.0
  0
SECTION
  2
HEADER
  9
$ACADVER
  1
AC1015
  9
$HANDSEED
  5
FFFF
  9
$SPLINESEGS
 70
8
  9
$DIMEXE
 40
2.0
  9
$DIMAZIN
 70
8
  9
$DIMZIN
 70
8
  9
$DIMLUNIT
 70
2
  9
$GRIDMODE
 70
0
  9
$INSUNITS
 70
0
  9
$DIMADEC
 70
2
  9
$DIMASZ
 40
4.0
  9
$DIMGAP
 40
1.0
  9
$DIMTXT
 40
4.0
  9
$GRIDUNIT
 10
0.0
 20
0.0
  9
$DIMEXO
 40
1.0
  9
$LUPREC
 70
0
  9
$CLAYER
  8
00
  9
$DIMAUNIT
 70
0
  9
$AUPREC
 70
2
  9
$PLIMMIN
 10
0.0
 20
0.0
  9
$LUNITS
 70
2
  9
$PLIMMAX
 10
210.0
 20
297.0
  9
$DIMSTYLE
  2
Standard
  9
$DIMBLK
  1

  9
$AUNITS
 70
0
  9
$CLAYER
  8
color azul claro
  0
ENDSEC
  0
SECTION
  2
TABLES
  0
TABLE
  2
VPORT
  5
8
100
AcDbSymbolTable
 70
1
  0
VPORT
  5
30
100
AcDbSymbolTableRecord
100
AcDbViewportTableRecord
  2
*Active
 70
0
 10
0.0
 20
0.0
 11
1.0
 21
1.0
 12
286.30555555555549
 22
148.5
 13
0.0
 23
0.0
 14
10.0
 24
10.0
 15
10.0
 25
10.0
 16
0.0
 26
0.0
 36
1.0
 17
0.0
 27
0.0
 37
0.0
 40
297.0
 41
1.92798353909465
 42
50.0
 43
0.0
 44
0.0
 50
0.0
 51
0.0
 71
0
 72
100
 73
1
 74
3
 75
1
 76
1
 77
0
 78
0
281
0
 65
1
110
0.0
120
0.0
130
0.0
111
1.0
121
0.0
131
0.0
112
0.0
122
1.0
132
0.0
 79
0
146
0.0
  0
ENDTAB
  0
TABLE
  2
LTYPE
  5
5
100
AcDbSymbolTable
 70
21
  0
LTYPE
  5
14
100
AcDbSymbolTableRecord
100
AcDbLinetypeTableRecord
  2
ByBlock
 70
0
  3

 72
65
 73
0
 40
0.0
  0
LTYPE
  5
15
100
AcDbSymbolTableRecord
100
AcDbLinetypeTableRecord
  2
ByLayer
 70
0
  3

 72
65
 73
0
 40
0.0
  0
LTYPE
  5
16
100
AcDbSymbolTableRecord
100
AcDbLinetypeTableRecord
  2
CONTINUOUS
 70
0
  3
Solid line
 72
65
 73
0
 40
0.0
  0
LTYPE
  5
31
100
AcDbSymbolTableRecord
100
AcDbLinetypeTableRecord
  2
DOT
 70
0
  3
Dot . . . . . . . . . . . . . . . . . . . . . .
 72
65
 73
2
 40
6.3499999999999996
 49
0.0
 74
0
 49
-6.3499999999999996
 74
0
  0
LTYPE
  5
32
100
AcDbSymbolTableRecord
100
AcDbLinetypeTableRecord
  2
DOT2
 70
0
  3
Dot (.5x) .....................................
 72
65
 73
2
 40
3.1749999999999998
 49
0.0
 74
0
 49
-3.1749999999999998
 74
0
  0
LTYPE
  5
33
100
AcDbSymbolTableRecord
100
AcDbLinetypeTableRecord
  2
DOTX2
 70
0
  3
Dot (2x) .  .  .  .  .  .  .  .  .  .  .  .  .
 72
65
 73
2
 40
12.699999999999999
 49
0.0
 74
0
 49
-12.699999999999999
 74
0
  0
LTYPE
  5
34
100
AcDbSymbolTableRecord
100
AcDbLinetypeTableRecord
  2
DASHED
 70
0
  3
Dashed __ __ __ __ __ __ __ __ __ __ __ __ __ _
 72
65
 73
2
 40
19.050000000000001
 49
12.699999999999999
 74
0
 49
-6.3499999999999996
 74
0
  0
LTYPE
  5
35
100
AcDbSymbolTableRecord
100
AcDbLinetypeTableRecord
  2
DASHED2
 70
0
  3
Dashed (.5x) _ _ _ _ _ _ _ _ _ _ _ _ _ _ _ _ _
 72
65
 73
2
 40
9.5250000000000004
 49
6.3499999999999996
 74
0
 49
-3.1749999999999998
 74
0
  0
LTYPE
  5
36
100
AcDbSymbolTableRecord
100
AcDbLinetypeTableRecord
  2
DASHEDX2
 70
0
  3
Dashed (2x) ____  ____  ____  ____  ____  ___
 72
65
 73
2
 40
38.100000000000001
 49
25.399999999999999
 74
0
 49
-12.699999999999999
 74
0
  0
LTYPE
  5
37
100
AcDbSymbolTableRecord
100
AcDbLinetypeTableRecord
  2
DASHDOT
 70
0
  3
Dash dot __ . __ . __ . __ . __ . __ . __ . __
 72
65
 73
4
 40
25.399999999999999
 49
12.699999999999999
 74
0
 49
-6.3499999999999996
 74
0
 49
0.0
 74
0
 49
-6.3499999999999996
 74
0
  0
LTYPE
  5
38
100
AcDbSymbolTableRecord
100
AcDbLinetypeTableRecord
  2
DASHDOT2
 70
0
  3
Dash dot (.5x) _._._._._._._._._._._._._._._.
 72
65
 73
4
 40
12.699999999999999
 49
6.3499999999999996
 74
0
 49
-3.1749999999999998
 74
0
 49
0.0
 74
0
 49
-3.1749999999999998
 74
0
  0
LTYPE
  5
39
100
AcDbSymbolTableRecord
100
AcDbLinetypeTableRecord
  2
DASHDOTX2
 70
0
  3
Dash dot (2x) ____  .  ____  .  ____  .  ___
 72
65
 73
4
 40
50.799999999999997
 49
25.399999999999999
 74
0
 49
-12.699999999999999
 74
0
 49
0.0
 74
0
 49
-12.699999999999999
 74
0
  0
LTYPE
  5
3A
100
AcDbSymbolTableRecord
100
AcDbLinetypeTableRecord
  2
DIVIDE
 70
0
  3
Divide ____ . . ____ . . ____ . . ____ . . ____
 72
65
 73
6
 40
31.75
 49
12.699999999999999
 74
0
 49
-6.3499999999999996
 74
0
 49
0.0
 74
0
 49
-6.3499999999999996
 74
0
 49
0.0
 74
0
 49
-6.3499999999999996
 74
0
  0
LTYPE
  5
3B
100
AcDbSymbolTableRecord
100
AcDbLinetypeTableRecord
  2
DIVIDE2
 70
0
  3
Divide (.5x) __..__..__..__..__..__..__..__.._
 72
65
 73
6
 40
15.875
 49
6.3499999999999996
 74
0
 49
-3.1749999999999998
 74
0
 49
0.0
 74
0
 49
-3.1749999999999998
 74
0
 49
0.0
 74
0
 49
-3.1749999999999998
 74
0
  0
LTYPE
  5
3C
100
AcDbSymbolTableRecord
100
AcDbLinetypeTableRecord
  2
DIVIDEX2
 70
0
  3
Divide (2x) ________  .  .  ________  .  .  _
 72
65
 73
6
 40
63.5
 49
25.399999999999999
 74
0
 49
-12.699999999999999
 74
0
 49
0.0
 74
0
 49
-12.699999999999999
 74
0
 49
0.0
 74
0
 49
-12.699999999999999
 74
0
  0
LTYPE
  5
3D
100
AcDbSymbolTableRecord
100
AcDbLinetypeTableRecord
  2
CENTER
 70
0
  3
Center ____ _ ____ _ ____ _ ____ _ ____ _ ____
 72
65
 73
4
 40
50.799999999999997
 49
31.75
 74
0
 49
-6.3499999999999996
 74
0
 49
6.3499999999999996
 74
0
 49
-6.3499999999999996
 74
0
  0
LTYPE
  5
3E
100
AcDbSymbolTableRecord
100
AcDbLinetypeTableRecord
  2
CENTER2
 70
0
  3
Center (.5x) ___ _ ___ _ ___ _ ___ _ ___ _ ___
 72
65
 73
4
 40
28.574999999999999
 49
19.050000000000001
 74
0
 49
-3.1749999999999998
 74
0
 49
3.1749999999999998
 74
0
 49
-3.1749999999999998
 74
0
  0
LTYPE
  5
3F
100
AcDbSymbolTableRecord
100
AcDbLinetypeTableRecord
  2
CENTERX2
 70
0
  3
Center (2x) ________  __  ________  __  _____
 72
65
 73
4
 40
101.59999999999999
 49
63.5
 74
0
 49
-12.699999999999999
 74
0
 49
12.699999999999999
 74
0
 49
-12.699999999999999
 74
0
  0
LTYPE
  5
40
100
AcDbSymbolTableRecord
100
AcDbLinetypeTableRecord
  2
BORDER
 70
0
  3
Border __ __ . __ __ . __ __ . __ __ . __ __ .
 72
65
 73
6
 40
44.450000000000003
 49
12.699999999999999
 74
0
 49
-6.3499999999999996
 74
0
 49
12.699999999999999
 74
0
 49
-6.3499999999999996
 74
0
 49
0.0
 74
0
 49
-6.3499999999999996
 74
0
  0
LTYPE
  5
41
100
AcDbSymbolTableRecord
100
AcDbLinetypeTableRecord
  2
BORDER2
 70
0
  3
Border (.5x) __.__.__.__.__.__.__.__.__.__.__.
 72
65
 73
6
 40
22.225000000000001
 49
6.3499999999999996
 74
0
 49
-3.1749999999999998
 74
0
 49
6.3499999999999996
 74
0
 49
-3.1749999999999998
 74
0
 49
0.0
 74
0
 49
-3.1749999999999998
 74
0
  0
LTYPE
  5
42
100
AcDbSymbolTableRecord
100
AcDbLinetypeTableRecord
  2
BORDERX2
 70
0
  3
Border (2x) ____  ____  .  ____  ____  .  ___
 72
65
 73
6
 40
88.900000000000006
 49
25.399999999999999
 74
0
 49
-12.699999999999999
 74
0
 49
25.399999999999999
 74
0
 49
-12.699999999999999
 74
0
 49
0.0
 74
0
 49
-12.699999999999999
 74
0
  0
ENDTAB
  0
TABLE
  2
LAYER
  5
2
100
AcDbSymbolTable
 70
6
  0
LAYER
  5
10
100
AcDbSymbolTableRecord
100
AcDbLayerTableRecord
  2
0
 70
0
 62
7
420
0
  6
CONTINUOUS
370
25
390
F
  0
LAYER
  5
43
100
AcDbSymbolTableRecord
100
AcDbLayerTableRecord
  2
color verde
 70
0
 62
92
420
38400
  6
CONTINUOUS
370
0
390
F
  0
LAYER
  5
44
100
AcDbSymbolTableRecord
100
AcDbLayerTableRecord
  2
color rojo
 70
0
 62
16
420
6553600
  6
CONTINUOUS
370
0
390
F
  0
LAYER
  5
45
100
AcDbSymbolTableRecord
100
AcDbLayerTableRecord
  2
color naranja
 70
0
 62
30
420
16737280
  6
CONTINUOUS
370
0
390
F
  0
LAYER
  5
46
100
AcDbSymbolTableRecord
100
AcDbLayerTableRecord
  2
color azul
 70
0
 62
176
420
100
  6
CONTINUOUS
370
0
390
F
  0
LAYER
  5
47
100
AcDbSymbolTableRecord
100
AcDbLayerTableRecord
  2
color azul claro
 70
0
 62
5
420
255
  6
CONTINUOUS
370
0
390
F
  0
ENDTAB
  0
TABLE
  2
STYLE
  5
3
100
AcDbSymbolTable
 70
1
  0
STYLE
  5
11
100
AcDbSymbolTableRecord
100
AcDbTextStyleTableRecord
  2
Standard
 70
0
 40
0.0
 41
0.75
 50
0.0
 71
0
 42
2.5
  3
txt
  4

  0
ENDTAB
  0
TABLE
  2
VIEW
  5
6
100
AcDbSymbolTable
 70
0
  0
ENDTAB
  0
TABLE
  2
UCS
  5
7
100
AcDbSymbolTable
 70
0
  0
ENDTAB
  0
TABLE
  2
APPID
  5
9
100
AcDbSymbolTable
 70
1
  0
APPID
  5
12
100
AcDbSymbolTableRecord
100
AcDbRegAppTableRecord
  2
ACAD
 70
0
  0
ENDTAB
  0
TABLE
  2
DIMSTYLE
  5
A
100
AcDbSymbolTable
 70
1
100
AcDbDimStyleTable
 71
0
  0
DIMSTYLE
105
27
100
AcDbSymbolTableRecord
100
AcDbDimStyleTableRecord
  2
Standard
 41
4.0
 42
1.0
 43
3.75
 44
2.0
 70
0
 73
0
 74
0
 77
1
 78
8
140
4.0
141
2.5
143
0.03937007874016
147
1.0
171
3
172
1
271
2
272
2
274
3
278
44
283
0
284
8
340
11
  0
ENDTAB
  0
TABLE
  2
BLOCK_RECORD
  5
1
100
AcDbSymbolTable
 70
1
  0
BLOCK_RECORD
  5
1F
100
AcDbSymbolTableRecord
100
AcDbBlockTableRecord
  2
*Model_Space
340
22
  0
BLOCK_RECORD
  5
1B
100
AcDbSymbolTableRecord
100
AcDbBlockTableRecord
  2
*Paper_Space
340
1E
  0
BLOCK_RECORD
  5
23
100
AcDbSymbolTableRecord
100
AcDbBlockTableRecord
  2
*Paper_Space0
340
26
  0
BLOCK_RECORD
  5
48
100
AcDbSymbolTableRecord
100
AcDbBlockTableRecord
  2
FLOR
340
0
  0
BLOCK_RECORD
  5
49
100
AcDbSymbolTableRecord
100
AcDbBlockTableRecord
  2
mosaico
340
0
  0
ENDTAB
  0
ENDSEC
  0
SECTION
  2
BLOCKS
  0
BLOCK
  5
20
100
AcDbEntity
  8
0
100
AcDbBlockBegin
  2
*Model_Space
 70
0
 10
0.0
 20
0.0
 30
0.0
  3
*Model_Space
  1

  0
ENDBLK
  5
21
100
AcDbEntity
  8
0
100
AcDbBlockEnd
  0
BLOCK
  5
1C
100
AcDbEntity
 67
1
  8
0
100
AcDbBlockBegin
  2
*Paper_Space
 70
0
 10
0.0
 20
0.0
 30
0.0
  3
*Paper_Space
  1

  0
ENDBLK
  5
1D
100
AcDbEntity
 67
1
  8
0
100
AcDbBlockEnd
  0
BLOCK
  5
24
100
AcDbEntity
  8
0
100
AcDbBlockBegin
  2
*Paper_Space0
 70
0
 10
0.0
 20
0.0
 30
0.0
  3
*Paper_Space0
  1

  0
ENDBLK
  5
25
100
AcDbEntity
  8
0
100
AcDbBlockEnd
  0
BLOCK
  5
4A
100
AcDbEntity
  8
0
100
AcDbBlockBegin
  2
FLOR
 70
0
 10
0.0
 20
0.0
 30
0.0
  3
FLOR
  1

  0
ENDBLK
  5
4B
100
AcDbEntity
  8
0
100
AcDbBlockEnd
  0
BLOCK
  5
4C
100
AcDbEntity
  8
0
100
AcDbBlockBegin
  2
mosaico
 70
0
 10
0.0
 20
0.0
 30
0.0
  3
mosaico
  1

  0
HATCH
  5
4D
  8
color verde
 62
256
370
-1
  6
ByLayer
100
AcDbEntity
100
AcDbHatch
 10
0.0
 20
0.0
 30
0.0
210
0.0
220
0.0
230
1.0
  2
SOLID
 70
1
 71
0
 91
1
 92
1
 93
16
 72
1
 10
33.967387829936797
 20
-88.628193944706339
 11
29.951901251666868
 21
-91.107060568190803
 72
1
 10
29.951901251666868
 20
-91.107060568190803
 11
31.038455641802102
 21
-95.699261756571815
 72
1
 10
31.038455641802102
 20
-95.699261756571815
 11
29.951901251666868
 21
-100.29146294495294
 72
1
 10
29.951901251666868
 20
-100.29146294495294
 11
33.967387829936797
 21
-102.7703295684374
 72
1
 10
33.967387829936797
 20
-102.7703295684374
 11
37.112971896670842
 21
-107.03904029791508
 72
1
 10
37.112971896670842
 20
-107.03904029791508
 11
41.038455641802329
 21
-105.69926175657193
 72
1
 10
41.038455641802329
 20
-105.69926175657193
 11
45.630656830183398
 21
-106.78581614670733
 72
1
 10
45.630656830183398
 20
-106.78581614670733
 11
48.109523453667634
 21
-102.77032956843738
 72
1
 10
48.109523453667634
 20
-102.77032956843738
 11
52.125010031937791
 21
-100.29146294495294
 72
1
 10
52.125010031937791
 20
-100.29146294495294
 11
51.038455641802102
 21
-95.699261756571758
 72
1
 10
51.038455641802102
 20
-95.699261756571758
 11
52.125010031937563
 21
-91.10706056819086
 72
1
 10
52.125010031937563
 20
-91.10706056819086
 11
48.109523453667634
 21
-88.628193944706396
 72
1
 10
48.109523453667634
 20
-88.628193944706396
 11
46.281153769919911
 21
-84.905091277214495
 72
1
 10
46.281153769919911
 20
-84.905091277214495
 11
41.038455641802329
 21
-85.699261756571929
 72
1
 10
41.038455641802329
 20
-85.699261756571929
 11
36.446254453421261
 21
-84.61270736643641
 72
1
 10
36.446254453421261
 20
-84.61270736643641
 11
33.967387829936797
 21
-88.628193944706339
 97
0
 75
0
 76
1
 98
0
  0
HATCH
  5
4E
  8
color rojo
 62
256
370
-1
  6
ByLayer
100
AcDbEntity
100
AcDbHatch
 10
0.0
 20
0.0
 30
0.0
210
0.0
220
0.0
230
1.0
  2
SOLID
 70
1
 71
0
 91
1
 92
1
 93
16
 72
1
 10
95.699261756567921
 20
-31.038455641805967
 11
91.10706056818708
 21
-29.951901251670506
 72
1
 10
91.10706056818708
 20
-29.951901251670506
 11
88.628193944702616
 21
-33.967387829940435
 72
1
 10
88.628193944702616
 20
-33.967387829940435
 11
84.612707366432687
 21
-36.446254453425013
 72
1
 10
84.612707366432687
 20
-36.446254453425013
 11
85.699261756568148
 21
-41.038455641805967
 72
1
 10
85.699261756568148
 20
-41.038455641805967
 11
84.905091277210886
 21
-46.281153769923549
 72
1
 10
84.905091277210886
 20
-46.281153769923549
 11
88.628193944702616
 21
-48.109523453671613
 72
1
 10
88.628193944702616
 20
-48.109523453671613
 11
91.10706056818708
 21
-52.125010031941429
 72
1
 10
91.10706056818708
 20
-52.125010031941429
 11
95.699261756568148
 21
-51.038455641805967
 72
1
 10
95.699261756568148
 20
-51.038455641805967
 11
100.29146294494922
 21
-52.125010031941429
 72
1
 10
100.29146294494922
 20
-52.125010031941429
 11
102.77032956843368
 21
-48.109523453671386
 72
1
 10
102.77032956843368
 20
-48.109523453671386
 11
106.78581614670361
 21
-45.630656830187036
 72
1
 10
106.78581614670361
 20
-45.630656830187036
 11
105.69926175656815
 21
-41.038455641805967
 72
1
 10
105.69926175656815
 20
-41.038455641805967
 11
107.03904029791147
 21
-37.112971896674708
 72
1
 10
107.03904029791147
 20
-37.112971896674708
 11
102.77032956843368
 21
-33.967387829940662
 72
1
 10
102.77032956843368
 20
-33.967387829940662
 11
100.29146294494922
 21
-29.951901251670506
 72
1
 10
100.29146294494922
 20
-29.951901251670506
 11
95.699261756567921
 21
-31.038455641805967
 97
0
 75
0
 76
1
 98
0
  0
HATCH
  5
4F
  8
color naranja
 62
256
370
-1
  6
ByLayer
100
AcDbEntity
100
AcDbHatch
 10
0.0
 20
0.0
 30
0.0
210
0.0
220
0.0
230
1.0
  2
SOLID
 70
1
 71
0
 91
1
 92
1
 93
5
 72
2
 10
41.038455641802329
 20
-95.699261756571929
 40
30.0
 50
237.90593177313943
 51
257.09406822686043
 73
0
 72
1
 10
34.337924716647194
 20
-66.457119473198645
 11
38.247220502261143
 21
-75.894994378155843
 72
1
 10
38.247220502261143
 20
-75.894994378155843
 11
36.446254453421261
 21
-84.61270736643641
 72
1
 10
36.446254453421261
 20
-84.61270736643641
 11
29.008425177148411
 21
-79.721828701806857
 72
1
 10
29.008425177148411
 20
-79.721828701806857
 11
25.099129391534461
 21
-70.283953796849573
 97
0
 75
0
 76
1
 98
0
  0
HATCH
  5
50
  8
color naranja
 62
256
370
-1
  6
ByLayer
100
AcDbEntity
100
AcDbHatch
 10
0.0
 20
0.0
 30
0.0
210
0.0
220
0.0
230
1.0
  2
SOLID
 70
1
 71
0
 91
1
 92
1
 93
5
 72
2
 10
41.038455641802329
 20
-95.699261756571929
 40
30.0
 50
282.90593177313946
 51
302.09406822686043
 73
0
 72
1
 10
56.97778189206997
 20
-70.28395379684946
 11
53.068486106456021
 21
-79.721828701806686
 72
1
 10
53.068486106456021
 20
-79.721828701806686
 11
45.630656830183398
 21
-84.612707366436467
 72
1
 10
45.630656830183398
 20
-84.612707366436467
 11
43.829690781343288
 21
-75.894994378155957
 72
1
 10
43.829690781343288
 20
-75.894994378155957
 11
47.738986566957237
 21
-66.457119473198645
 97
0
 75
0
 76
1
 98
0
  0
HATCH
  5
51
  8
color naranja
 62
256
370
-1
  6
ByLayer
100
AcDbEntity
100
AcDbHatch
 10
0.0
 20
0.0
 30
0.0
210
0.0
220
0.0
230
1.0
  2
SOLID
 70
1
 71
0
 91
1
 92
1
 93
5
 72
2
 10
41.038455641802329
 20
-95.699261756571929
 40
30.0
 50
327.90593177313946
 51
347.09406822686043
 73
0
 72
1
 10
70.280597925175471
 20
-88.99873083141685
 11
60.842723020218273
 21
-92.908026617030799
 72
1
 10
60.842723020218273
 20
-92.908026617030799
 11
52.125010031937791
 21
-91.107060568190803
 72
1
 10
52.125010031937791
 20
-91.107060568190803
 11
57.015888696567345
 21
-83.669231291917953
 72
1
 10
57.015888696567345
 20
-83.669231291917953
 11
66.453763601524543
 21
-79.759935506304004
 97
0
 75
0
 76
1
 98
0
  0
HATCH
  5
52
  8
color naranja
 62
256
370
-1
  6
ByLayer
100
AcDbEntity
100
AcDbHatch
 10
0.0
 20
0.0
 30
0.0
210
0.0
220
0.0
230
1.0
  2
SOLID
 70
1
 71
0
 91
1
 92
1
 93
5
 72
2
 10
41.038455641802329
 20
-95.699261756571929
 40
30.0
 50
12.905931773139438
 51
32.094068226860408
 73
0
 72
1
 10
66.453763601524543
 20
-111.63858800683968
 11
57.015888696567345
 21
-107.72929222122579
 72
1
 10
57.015888696567345
 20
-107.72929222122579
 11
52.125010031937791
 21
-100.29146294495294
 72
1
 10
52.125010031937791
 20
-100.29146294495294
 11
60.842723020218273
 21
-98.490496896112717
 72
1
 10
60.842723020218273
 20
-98.490496896112717
 11
70.280597925175471
 21
-102.39979268172672
 97
0
 75
0
 76
1
 98
0
  0
HATCH
  5
53
  8
color naranja
 62
256
370
-1
  6
ByLayer
100
AcDbEntity
100
AcDbHatch
 10
0.0
 20
0.0
 30
0.0
210
0.0
220
0.0
230
1.0
  2
SOLID
 70
1
 71
0
 91
1
 92
1
 93
5
 72
2
 10
41.038455641802329
 20
-95.699261756571929
 40
30.0
 50
57.905931773139436
 51
77.094068226860415
 73
0
 72
1
 10
47.738986566957237
 20
-124.94140403994501
 11
43.829690781343288
 21
-115.50352913498784
 72
1
 10
43.829690781343288
 20
-115.50352913498784
 11
45.630656830183398
 21
-106.78581614670728
 72
1
 10
45.630656830183398
 20
-106.78581614670728
 11
53.068486106456021
 21
-111.67669481133692
 72
1
 10
53.068486106456021
 20
-111.67669481133692
 11
56.977781892070198
 21
-121.11456971629426
 97
0
 75
0
 76
1
 98
0
  0
HATCH
  5
54
  8
color naranja
 62
256
370
-1
  6
ByLayer
100
AcDbEntity
100
AcDbHatch
 10
0.0
 20
0.0
 30
0.0
210
0.0
220
0.0
230
1.0
  2
SOLID
 70
1
 71
0
 91
1
 92
1
 93
5
 72
2
 10
41.038455641802329
 20
-95.699261756571929
 40
30.0
 50
102.90593177313944
 51
122.09406822686041
 73
0
 72
1
 10
25.099129391534461
 20
-121.11456971629414
 11
29.008425177148411
 21
-111.67669481133697
 72
1
 10
29.008425177148411
 20
-111.67669481133697
 11
36.446254453421261
 21
-106.7858161467073
 72
1
 10
36.446254453421261
 20
-106.7858161467073
 11
38.247220502261371
 21
-115.50352913498773
 72
1
 10
38.247220502261371
 20
-115.50352913498773
 11
34.337924716647422
 21
-124.94140403994516
 97
0
 75
0
 76
1
 98
0
  0
HATCH
  5
55
  8
color naranja
 62
256
370
-1
  6
ByLayer
100
AcDbEntity
100
AcDbHatch
 10
0.0
 20
0.0
 30
0.0
210
0.0
220
0.0
230
1.0
  2
SOLID
 70
1
 71
0
 91
1
 92
1
 93
5
 72
2
 10
41.038455641802329
 20
-95.699261756571929
 40
30.0
 50
147.90593177313943
 51
167.09406822686046
 73
0
 72
1
 10
11.796313358428961
 20
-102.39979268172692
 11
21.234188263386386
 21
-98.490496896112944
 72
1
 10
21.234188263386386
 20
-98.490496896112944
 11
29.951901251666868
 21
-100.291462944953
 72
1
 10
29.951901251666868
 20
-100.291462944953
 11
25.061022587037087
 21
-107.72929222122588
 72
1
 10
25.061022587037087
 20
-107.72929222122588
 11
15.623147682079889
 21
-111.63858800683977
 97
0
 75
0
 76
1
 98
0
  0
HATCH
  5
56
  8
color naranja
 62
256
370
-1
  6
ByLayer
100
AcDbEntity
100
AcDbHatch
 10
0.0
 20
0.0
 30
0.0
210
0.0
220
0.0
230
1.0
  2
SOLID
 70
1
 71
0
 91
1
 92
1
 93
5
 72
2
 10
41.038455641802329
 20
-95.699261756571929
 40
30.0
 50
192.90593177313943
 51
212.09406822686034
 73
0
 72
1
 10
15.623147682079889
 20
-79.759935506303947
 11
25.061022587037087
 21
-83.66923129191801
 72
1
 10
25.061022587037087
 20
-83.66923129191801
 11
29.951901251666868
 21
-91.107060568190974
 72
1
 10
29.951901251666868
 20
-91.107060568190974
 11
21.234188263386386
 21
-92.90802661703097
 72
1
 10
21.234188263386386
 20
-92.90802661703097
 11
11.796313358428961
 21
-88.998730831416964
 97
0
 75
0
 76
1
 98
0
  0
HATCH
  5
57
  8
color azul
 62
256
370
-1
  6
ByLayer
100
AcDbEntity
100
AcDbHatch
 10
0.0
 20
0.0
 30
0.0
210
0.0
220
0.0
230
1.0
  2
SOLID
 70
1
 71
0
 91
1
 92
1
 93
5
 72
2
 10
134.35028842544216
 20
-134.35028842544602
 40
64.0
 50
243.01920121401776
 51
251.98079878598219
 73
0
 72
1
 10
114.55280367244882
 20
-73.489302585131099
 11
124.16819536332969
 21
-96.702911612785016
 72
1
 10
124.16819536332969
 20
-96.702911612785016
 11
124.78320261631484
 21
-111.25330011266379
 72
1
 10
124.78320261631484
 20
-111.25330011266379
 11
114.92940003821673
 21
-100.52974593643589
 72
1
 10
114.92940003821673
 20
-100.52974593643589
 11
105.31400834733586
 21
-77.316136908782028
 97
0
 75
0
 76
1
 98
0
  0
HATCH
  5
58
  8
color azul
 62
256
370
-1
  6
ByLayer
100
AcDbEntity
100
AcDbHatch
 10
0.0
 20
0.0
 30
0.0
210
0.0
220
0.0
230
1.0
  2
SOLID
 70
1
 71
0
 91
1
 92
1
 93
5
 72
2
 10
134.35028842544216
 20
-134.35028842544602
 40
64.0
 50
220.51920121401778
 51
229.48079878598222
 73
0
 72
1
 10
92.769306508452473
 20
-85.698238696590892
 11
110.53623366902025
 21
-103.46516585715858
 72
1
 10
110.53623366902025
 20
-103.46516585715858
 11
116.67261889577844
 21
-116.67261889578231
 72
1
 10
116.67261889577844
 20
-116.67261889578231
 11
103.46516585715472
 21
-110.53623366902403
 72
1
 10
103.46516585715472
 20
-110.53623366902403
 11
85.698238696586941
 21
-92.769306508456424
 97
0
 75
0
 76
1
 98
0
  0
HATCH
  5
59
  8
color azul
 62
256
370
-1
  6
ByLayer
100
AcDbEntity
100
AcDbHatch
 10
0.0
 20
0.0
 30
0.0
210
0.0
220
0.0
230
1.0
  2
SOLID
 70
1
 71
0
 91
1
 92
1
 93
5
 72
2
 10
134.35028842544216
 20
-134.35028842544602
 40
64.0
 50
198.01920121401781
 51
206.98079878598219
 73
0
 72
1
 10
77.316136908778162
 20
-105.31400834733981
 11
100.52974593643216
 21
-114.92940003822045
 72
1
 10
100.52974593643216
 20
-114.92940003822045
 11
111.25330011265987
 21
-124.78320261631865
 72
1
 10
111.25330011265987
 20
-124.78320261631865
 11
96.702911612781236
 21
-124.16819536333341
 72
1
 10
96.702911612781236
 20
-124.16819536333341
 11
73.489302585127234
 21
-114.55280367245263
 97
0
 75
0
 76
1
 98
0
  0
HATCH
  5
5A
  8
color azul
 62
256
370
-1
  6
ByLayer
100
AcDbEntity
100
AcDbHatch
 10
0.0
 20
0.0
 30
0.0
210
0.0
220
0.0
230
1.0
  2
SOLID
 70
1
 71
0
 91
1
 92
1
 93
4
 72
1
 10
65.17514421272017
 20
-69.175144212723922
 11
65.17514421272017
 21
-65.175144212723922
 72
1
 10
65.17514421272017
 20
-65.175144212723922
 11
69.17514421272017
 21
-65.175144212724149
 72
1
 10
69.17514421272017
 20
-65.175144212724149
 11
69.17514421272017
 21
-69.175144212724035
 72
1
 10
69.17514421272017
 20
-69.175144212724035
 11
65.17514421272017
 21
-69.175144212723922
 97
0
 75
0
 76
1
 98
0
  0
HATCH
  5
5B
  8
color azul
 62
256
370
-1
  6
ByLayer
100
AcDbEntity
100
AcDbHatch
 10
0.0
 20
0.0
 30
0.0
210
0.0
220
0.0
230
1.0
  2
SOLID
 70
1
 71
0
 91
1
 92
1
 93
5
 72
2
 10
62.93250352560085
 20
-62.93250352560483
 40
30.0
 50
35.405931773139415
 51
54.594068226860486
 73
0
 72
1
 10
80.313470283020024
 20
-87.38453809488945
 11
73.090033557297375
 21
-80.161101369166687
 72
1
 10
73.090033557297375
 20
-80.161101369166687
 11
71.417784899839489
 21
-71.417784899843355
 72
1
 10
71.417784899839489
 20
-71.417784899843355
 11
80.161101369162907
 21
-73.090033557300899
 72
1
 10
80.161101369162907
 20
-73.090033557300899
 11
87.384538094885556
 21
-80.313470283023861
 97
0
 75
0
 76
1
 98
0
  0
HATCH
  5
5C
  8
color azul
 62
256
370
-1
  6
ByLayer
100
AcDbEntity
100
AcDbHatch
 10
0.0
 20
0.0
 30
0.0
210
0.0
220
0.0
230
1.0
  2
SOLID
 70
1
 71
0
 91
1
 92
1
 93
5
 72
2
 10
71.417784899839262
 20
-71.417784899843241
 40
30.0
 50
125.40593177313944
 51
144.59406822686043
 73
1
 72
1
 10
46.965750330554783
 20
-54.036818142424067
 11
54.18918705627766
 21
-61.260254868146831
 72
1
 10
54.18918705627766
 20
-61.260254868146831
 11
62.932503525600623
 21
-62.932503525604716
 72
1
 10
62.932503525600623
 20
-62.932503525604716
 11
61.26025486814342
 21
-54.189187056281185
 72
1
 10
61.26025486814342
 20
-54.189187056281185
 11
54.036818142420088
 21
-46.965750330558762
 97
0
 75
0
 76
1
 98
0
  0
HATCH
  5
5D
  8
color azul
 62
256
370
-1
  6
ByLayer
100
AcDbEntity
100
AcDbHatch
 10
0.0
 20
0.0
 30
0.0
210
0.0
220
0.0
230
1.0
  2
SOLID
 70
1
 71
0
 91
1
 92
1
 93
5
 72
2
 10
0.0
 20
0.0
 40
64.0
 50
333.01920121401776
 51
341.98079878598219
 73
1
 72
1
 10
60.860985840315152
 20
-19.797484752993455
 11
37.64737681266115
 21
-10.182093062112585
 72
1
 10
37.64737681266115
 20
-10.182093062112585
 11
23.096988312782287
 21
-9.5670858091273203
 72
1
 10
23.096988312782287
 20
-9.5670858091273203
 11
33.820542489010222
 21
-19.420888387225546
 72
1
 10
33.820542489010222
 20
-19.420888387225546
 11
57.034151516664224
 21
-29.036280078106302
 97
0
 75
0
 76
1
 98
0
  0
HATCH
  5
5E
  8
color azul
 62
256
370
-1
  6
ByLayer
100
AcDbEntity
100
AcDbHatch
 10
0.0
 20
0.0
 30
0.0
210
0.0
220
0.0
230
1.0
  2
SOLID
 70
1
 71
0
 91
1
 92
1
 93
5
 72
2
 10
0.0
 20
0.0
 40
64.0
 50
310.51920121401781
 51
319.48079878598219
 73
1
 72
1
 10
48.652049728855218
 20
-41.580981916989685
 11
30.885122568287443
 21
-23.814054756422024
 72
1
 10
30.885122568287443
 20
-23.814054756422024
 11
17.677669529663945
 21
-17.677669529663717
 72
1
 10
17.677669529663945
 20
-17.677669529663717
 11
23.814054756422138
 21
-30.885122568287443
 72
1
 10
23.814054756422138
 20
-30.885122568287443
 11
41.580981916989913
 21
-48.652049728855218
 97
0
 75
0
 76
1
 98
0
  0
HATCH
  5
5F
  8
color azul
 62
256
370
-1
  6
ByLayer
100
AcDbEntity
100
AcDbHatch
 10
0.0
 20
0.0
 30
0.0
210
0.0
220
0.0
230
1.0
  2
SOLID
 70
1
 71
0
 91
1
 92
1
 93
5
 72
2
 10
0.0
 20
0.0
 40
64.0
 50
288.01920121401781
 51
296.98079878598224
 73
1
 72
1
 10
29.036280078106302
 20
-57.034151516663997
 11
19.420888387225659
 21
-33.820542489010109
 72
1
 10
19.420888387225659
 20
-33.820542489010109
 11
9.5670858091275477
 21
-23.096988312782173
 72
1
 10
9.5670858091275477
 20
-23.096988312782173
 11
10.182093062112699
 21
-37.647376812661037
 72
1
 10
10.182093062112699
 20
-37.647376812661037
 11
19.797484752993569
 21
-60.860985840314925
 97
0
 75
0
 76
1
 98
0
  0
HATCH
  5
60
  8
color azul claro
 62
256
370
-1
  6
ByLayer
100
AcDbEntity
100
AcDbHatch
 10
0.0
 20
0.0
 30
0.0
210
0.0
220
0.0
230
1.0
  2
SOLID
 70
1
 71
0
 91
1
 92
1
 93
5
 72
2
 10
95.699261756568148
 20
-41.038455641805967
 40
30.0
 50
282.90593177313946
 51
302.09406822686043
 73
0
 72
1
 10
111.63858800683602
 20
-15.623147682083754
 11
107.72929222122184
 21
-25.061022587040839
 72
1
 10
107.72929222122184
 20
-25.061022587040839
 11
100.29146294494922
 21
-29.951901251670506
 72
1
 10
100.29146294494922
 20
-29.951901251670506
 11
98.490496896109107
 21
-21.234188263390024
 72
1
 10
98.490496896109107
 20
-21.234188263390024
 11
102.39979268172306
 21
-11.796313358432712
 97
0
 75
0
 76
1
 98
0
  0
HATCH
  5
61
  8
color azul claro
 62
256
370
-1
  6
ByLayer
100
AcDbEntity
100
AcDbHatch
 10
0.0
 20
0.0
 30
0.0
210
0.0
220
0.0
230
1.0
  2
SOLID
 70
1
 71
0
 91
1
 92
1
 93
5
 72
2
 10
95.699261756568148
 20
-41.038455641805967
 40
30.0
 50
327.90593177313946
 51
347.09406822686043
 73
0
 72
1
 10
124.94140403994129
 20
-34.337924716651059
 11
115.50352913498409
 21
-38.247220502264895
 72
1
 10
115.50352913498409
 20
-38.247220502264895
 11
106.78581614670361
 21
-36.446254453424899
 72
1
 10
106.78581614670361
 20
-36.446254453424899
 11
111.67669481133316
 21
-29.008425177152162
 72
1
 10
111.67669481133316
 20
-29.008425177152162
 11
121.11456971629059
 21
-25.099129391538099
 97
0
 75
0
 76
1
 98
0
  0
HATCH
  5
62
  8
color azul claro
 62
256
370
-1
  6
ByLayer
100
AcDbEntity
100
AcDbHatch
 10
0.0
 20
0.0
 30
0.0
210
0.0
220
0.0
230
1.0
  2
SOLID
 70
1
 71
0
 91
1
 92
1
 93
5
 72
2
 10
95.699261756568148
 20
-41.038455641805967
 40
30.0
 50
12.905931773139438
 51
32.094068226860408
 73
0
 72
1
 10
121.11456971629059
 20
-56.977781892073722
 11
111.67669481133339
 21
-53.068486106459773
 72
1
 10
111.67669481133339
 20
-53.068486106459773
 11
106.78581614670361
 21
-45.630656830187036
 72
1
 10
106.78581614670361
 20
-45.630656830187036
 11
115.50352913498409
 21
-43.829690781346926
 72
1
 10
115.50352913498409
 20
-43.829690781346926
 11
124.94140403994129
 21
-47.738986566960875
 97
0
 75
0
 76
1
 98
0
  0
HATCH
  5
63
  8
color azul claro
 62
256
370
-1
  6
ByLayer
100
AcDbEntity
100
AcDbHatch
 10
0.0
 20
0.0
 30
0.0
210
0.0
220
0.0
230
1.0
  2
SOLID
 70
1
 71
0
 91
1
 92
1
 93
5
 72
2
 10
95.699261756568148
 20
-41.038455641805967
 40
30.0
 50
57.905931773139436
 51
77.094068226860415
 73
0
 72
1
 10
102.39979268172328
 20
-70.280597925179222
 11
98.490496896109107
 21
-60.842723020222024
 72
1
 10
98.490496896109107
 20
-60.842723020222024
 11
100.29146294494922
 21
-52.125010031941429
 72
1
 10
100.29146294494922
 20
-52.125010031941429
 11
107.72929222122207
 21
-57.015888696570983
 72
1
 10
107.72929222122207
 20
-57.015888696570983
 11
111.63858800683602
 21
-66.453763601528294
 97
0
 75
0
 76
1
 98
0
  0
HATCH
  5
64
  8
color azul claro
 62
256
370
-1
  6
ByLayer
100
AcDbEntity
100
AcDbHatch
 10
0.0
 20
0.0
 30
0.0
210
0.0
220
0.0
230
1.0
  2
SOLID
 70
1
 71
0
 91
1
 92
1
 93
5
 72
2
 10
95.699261756568148
 20
-41.038455641805967
 40
30.0
 50
102.90593177313939
 51
122.09406822686046
 73
0
 72
1
 10
79.75993550630028
 20
-66.453763601528408
 11
83.66923129191423
 21
-57.015888696571096
 72
1
 10
83.66923129191423
 20
-57.015888696571096
 11
91.10706056818708
 21
-52.125010031941429
 72
1
 10
91.10706056818708
 20
-52.125010031941429
 11
92.90802661702719
 21
-60.842723020222024
 72
1
 10
92.90802661702719
 20
-60.842723020222024
 11
88.998730831413241
 21
-70.280597925179222
 97
0
 75
0
 76
1
 98
0
  0
HATCH
  5
65
  8
color azul claro
 62
256
370
-1
  6
ByLayer
100
AcDbEntity
100
AcDbHatch
 10
0.0
 20
0.0
 30
0.0
210
0.0
220
0.0
230
1.0
  2
SOLID
 70
1
 71
0
 91
1
 92
1
 93
5
 72
2
 10
95.699261756568148
 20
-41.038455641805967
 40
30.0
 50
147.90593177313943
 51
167.09406822686046
 73
0
 72
1
 10
66.457119473195007
 20
-47.738986566961103
 11
75.894994378152205
 21
-43.82969078134704
 72
1
 10
75.894994378152205
 20
-43.82969078134704
 11
84.612707366432915
 21
-45.630656830187149
 72
1
 10
84.612707366432915
 20
-45.630656830187149
 11
79.721828701803133
 21
-53.068486106459886
 72
1
 10
79.721828701803133
 20
-53.068486106459886
 11
70.283953796845935
 21
-56.977781892073835
 97
0
 75
0
 76
1
 98
0
  0
HATCH
  5
66
  8
color azul claro
 62
256
370
-1
  6
ByLayer
100
AcDbEntity
100
AcDbHatch
 10
0.0
 20
0.0
 30
0.0
210
0.0
220
0.0
230
1.0
  2
SOLID
 70
1
 71
0
 91
1
 92
1
 93
5
 72
2
 10
95.699261756568148
 20
-41.038455641805967
 40
30.0
 50
192.90593177313943
 51
212.09406822686034
 73
0
 72
1
 10
70.283953796845708
 20
-25.099129391538099
 11
79.721828701803133
 21
-29.008425177152162
 72
1
 10
79.721828701803133
 20
-29.008425177152162
 11
84.612707366432687
 21
-36.446254453424899
 72
1
 10
84.612707366432687
 20
-36.446254453424899
 11
75.894994378152205
 21
-38.247220502265122
 72
1
 10
75.894994378152205
 20
-38.247220502265122
 11
66.457119473195007
 21
-34.337924716651059
 97
0
 75
0
 76
1
 98
0
  0
HATCH
  5
67
  8
color azul claro
 62
256
370
-1
  6
ByLayer
100
AcDbEntity
100
AcDbHatch
 10
0.0
 20
0.0
 30
0.0
210
0.0
220
0.0
230
1.0
  2
SOLID
 70
1
 71
0
 91
1
 92
1
 93
5
 72
2
 10
95.699261756568148
 20
-41.038455641805967
 40
30.0
 50
237.90593177313943
 51
257.09406822686043
 73
0
 72
1
 10
88.998730831413013
 20
-11.796313358432712
 11
92.90802661702719
 21
-21.23418826338991
 72
1
 10
92.90802661702719
 20
-21.23418826338991
 11
91.10706056818708
 21
-29.951901251670506
 72
1
 10
91.10706056818708
 20
-29.951901251670506
 11
83.66923129191423
 21
-25.061022587040952
 72
1
 10
83.66923129191423
 20
-25.061022587040952
 11
79.75993550630028
 21
-15.623147682083641
 97
0
 75
0
 76
1
 98
0
  0
HATCH
  5
68
  8
color verde
 62
256
370
-1
  6
ByLayer
100
AcDbEntity
100
AcDbHatch
 10
0.0
 20
0.0
 30
0.0
210
0.0
220
0.0
230
1.0
  2
SOLID
 70
1
 71
0
 91
1
 92
1
 93
10
 72
1
 10
0.0
 20
-25.0
 11
3.5116257962895361
 21
-17.654135047258251
 72
1
 10
3.5116257962895361
 20
-17.654135047258251
 11
9.5670858091275477
 21
-23.096988312782173
 72
1
 10
9.5670858091275477
 20
-23.096988312782173
 11
10.00026419435244
 21
-14.966453021446
 72
1
 10
10.00026419435244
 20
-14.966453021446
 11
17.677669529663262
 21
-17.677669529664286
 72
1
 10
17.677669529663262
 20
-17.677669529664286
 11
14.966453021445432
 21
-10.000264194353235
 72
1
 10
14.966453021445432
 20
-10.000264194353235
 11
23.096988312782287
 21
-9.5670858091273203
 72
1
 10
23.096988312782287
 20
-9.5670858091273203
 11
17.654135047258023
 21
-3.5116257962907866
 72
1
 10
17.654135047258023
 20
-3.5116257962907866
 11
25.0
 21
-0.0000000000007958
 72
1
 10
25.0
 20
-0.0000000000007958
 11
0.0
 21
0.0
 72
1
 10
0.0
 20
0.0
 11
0.0
 21
-25.0
 97
0
 75
0
 76
1
 98
0
  0
HATCH
  5
69
  8
color azul
 62
256
370
-1
  6
ByLayer
100
AcDbEntity
100
AcDbHatch
 10
0.0
 20
0.0
 30
0.0
210
0.0
220
0.0
230
1.0
  2
SOLID
 70
1
 71
0
 91
1
 92
1
 93
4
 72
2
 10
101.0
 20
0.0000000000000568
 40
30.000000000000046
 50
180.0
 51
189.5940682268606
 73
1
 72
1
 10
71.419601084501892
 20
-4.9999999999999432
 11
81.635083268962944
 21
-4.9999999999999432
 72
1
 10
81.635083268962944
 20
-4.9999999999999432
 11
89.0
 21
0.0
 72
1
 10
89.0
 20
0.0
 11
71.0
 21
0.0
 97
0
 75
0
 76
1
 98
0
  0
HATCH
  5
6A
  8
color azul
 62
256
370
-1
  6
ByLayer
100
AcDbEntity
100
AcDbHatch
 10
0.0
 20
0.0
 30
0.0
210
0.0
220
0.0
230
1.0
  2
SOLID
 70
1
 71
0
 91
1
 92
1
 93
4
 72
2
 10
89.0
 20
0.0000000000001705
 40
30.000000000000046
 50
0.0
 51
9.594068226860637
 73
0
 72
1
 10
118.58039891549811
 20
-4.9999999999998295
 11
108.36491673103706
 21
-4.9999999999998295
 72
1
 10
108.36491673103706
 20
-4.9999999999998295
 11
101.0
 21
0.0000000000001137
 72
1
 10
101.0
 20
0.0000000000001137
 11
119.0
 21
0.0000000000001137
 97
0
 75
0
 76
1
 98
0
  0
HATCH
  5
6B
  8
color verde
 62
256
370
-1
  6
ByLayer
100
AcDbEntity
100
AcDbHatch
 10
0.0
 20
0.0
 30
0.0
210
0.0
220
0.0
230
1.0
  2
SOLID
 70
1
 71
0
 91
1
 92
1
 93
10
 72
1
 10
134.35028842544216
 20
-109.35028842544602
 11
130.83866262915262
 21
-116.69615337818777
 72
1
 10
130.83866262915262
 20
-116.69615337818777
 11
124.78320261631461
 21
-111.25330011266385
 72
1
 10
124.78320261631461
 20
-111.25330011266385
 11
124.35002423108972
 21
-119.38383540400002
 72
1
 10
124.35002423108972
 20
-119.38383540400002
 11
116.6726188957789
 21
-116.67261889578174
 72
1
 10
116.6726188957789
 20
-116.67261889578174
 11
119.38383540399673
 21
-124.35002423109279
 72
1
 10
119.38383540399673
 20
-124.35002423109279
 11
111.25330011265987
 21
-124.78320261631865
 72
1
 10
111.25330011265987
 20
-124.78320261631865
 11
116.69615337818414
 21
-130.83866262915524
 72
1
 10
116.69615337818414
 20
-130.83866262915524
 11
109.35028842544216
 21
-134.35028842544602
 72
1
 10
109.35028842544216
 20
-134.35028842544602
 11
134.35028842544216
 21
-134.35028842544602
 72
1
 10
134.35028842544216
 20
-134.35028842544602
 11
134.35028842544216
 21
-109.35028842544602
 97
0
 75
0
 76
1
 98
0
  0
HATCH
  5
6C
  8
color azul
 62
256
370
-1
  6
ByLayer
100
AcDbEntity
100
AcDbHatch
 10
0.0
 20
0.0
 30
0.0
210
0.0
220
0.0
230
1.0
  2
SOLID
 70
1
 71
0
 91
1
 92
1
 93
4
 72
2
 10
0.0
 20
-0.0000000000007958
 40
63.999999999999979
 50
85.519201214017784
 51
90.0
 73
0
 72
1
 10
0.0
 20
-64.0
 11
0.0
 21
-25.0
 72
1
 10
0.0
 20
-25.0
 11
5.0000000000006821
 21
-38.678159211627417
 72
1
 10
5.0000000000006821
 20
-38.678159211627417
 11
5.0000000000009095
 21
-63.804388563797147
 97
0
 75
0
 76
1
 98
0
  0
HATCH
  5
6D
  8
color azul
 62
256
370
-1
  6
ByLayer
100
AcDbEntity
100
AcDbHatch
 10
0.0
 20
0.0
 30
0.0
210
0.0
220
0.0
230
1.0
  2
SOLID
 70
1
 71
0
 91
1
 92
1
 93
4
 72
2
 10
0.0
 20
-0.0000000000007958
 40
63.999999999999979
 50
355.51920121401781
 51
0.0
 73
1
 72
1
 10
64.0
 20
-0.0000000000007958
 11
25.0
 21
-0.0000000000007958
 72
1
 10
25.0
 20
-0.0000000000007958
 11
38.678159211627417
 21
-5.0000000000007958
 72
1
 10
38.678159211627417
 20
-5.0000000000007958
 11
63.804388563797147
 21
-5.0000000000007958
 97
0
 75
0
 76
1
 98
0
  0
HATCH
  5
6E
  8
color azul
 62
256
370
-1
  6
ByLayer
100
AcDbEntity
100
AcDbHatch
 10
0.0
 20
0.0
 30
0.0
210
0.0
220
0.0
230
1.0
  2
SOLID
 70
1
 71
0
 91
1
 92
1
 93
3
 72
1
 10
92.171572875253787
 20
0.0
 11
95.0
 21
-2.8284271247460993
 72
1
 10
95.0
 20
-2.8284271247460993
 11
97.828427124746213
 21
0.0
 72
1
 10
97.828427124746213
 20
0.0
 11
92.171572875253787
 21
0.0
 97
0
 75
0
 76
1
 98
0
  0
HATCH
  5
6F
  8
color azul
 62
256
370
-1
  6
ByLayer
100
AcDbEntity
100
AcDbHatch
 10
0.0
 20
0.0
 30
0.0
210
0.0
220
0.0
230
1.0
  2
SOLID
 70
1
 71
0
 91
1
 92
1
 93
3
 72
1
 10
92.171572875253787
 20
0.0
 11
95.0
 21
-2.8284271247460993
 72
1
 10
95.0
 20
-2.8284271247460993
 11
97.828427124746213
 21
0.0
 72
1
 10
97.828427124746213
 20
0.0
 11
92.171572875253787
 21
0.0
 97
0
 75
0
 76
1
 98
0
  0
HATCH
  5
70
  8
color azul
 62
256
370
-1
  6
ByLayer
100
AcDbEntity
100
AcDbHatch
 10
0.0
 20
0.0
 30
0.0
210
0.0
220
0.0
230
1.0
  2
SOLID
 70
1
 71
0
 91
1
 92
1
 93
4
 72
2
 10
45.350288425442159
 20
-134.35028842544602
 40
30.000000000000046
 50
180.0
 51
189.5940682268606
 73
0
 72
1
 10
15.769889509944051
 20
-129.35028842544608
 11
25.985371694405103
 21
-129.35028842544608
 72
1
 10
25.985371694405103
 20
-129.35028842544608
 11
33.350288425442159
 21
-134.35028842544602
 72
1
 10
33.350288425442159
 20
-134.35028842544602
 11
15.350288425442159
 21
-134.35028842544602
 97
0
 75
0
 76
1
 98
0
  0
HATCH
  5
71
  8
color azul
 62
256
370
-1
  6
ByLayer
100
AcDbEntity
100
AcDbHatch
 10
0.0
 20
0.0
 30
0.0
210
0.0
220
0.0
230
1.0
  2
SOLID
 70
1
 71
0
 91
1
 92
1
 93
4
 72
2
 10
33.350288425442159
 20
-134.35028842544602
 40
30.000000000000046
 50
0.0
 51
9.5940682268606476
 73
1
 72
1
 10
62.930687340940267
 20
-129.35028842544619
 11
52.715205156479215
 21
-129.35028842544622
 72
1
 10
52.715205156479215
 20
-129.35028842544622
 11
45.350288425442159
 21
-134.35028842544602
 72
1
 10
45.350288425442159
 20
-134.35028842544602
 11
63.350288425442159
 21
-134.35028842544591
 97
0
 75
0
 76
1
 98
0
  0
HATCH
  5
72
  8
color azul
 62
256
370
-1
  6
ByLayer
100
AcDbEntity
100
AcDbHatch
 10
0.0
 20
0.0
 30
0.0
210
0.0
220
0.0
230
1.0
  2
SOLID
 70
1
 71
0
 91
1
 92
1
 93
3
 72
1
 10
36.521861300695946
 20
-134.35028842544602
 11
39.350288425442159
 21
-131.52186130069992
 72
1
 10
39.350288425442159
 20
-131.52186130069992
 11
42.178715550188372
 21
-134.35028842544602
 72
1
 10
42.178715550188372
 20
-134.35028842544602
 11
36.521861300695946
 21
-134.35028842544602
 97
0
 75
0
 76
1
 98
0
  0
HATCH
  5
73
  8
color azul
 62
256
370
-1
  6
ByLayer
100
AcDbEntity
100
AcDbHatch
 10
0.0
 20
0.0
 30
0.0
210
0.0
220
0.0
230
1.0
  2
SOLID
 70
1
 71
0
 91
1
 92
1
 93
3
 72
1
 10
36.521861300695946
 20
-134.35028842544602
 11
39.350288425442159
 21
-131.52186130069992
 72
1
 10
39.350288425442159
 20
-131.52186130069992
 11
42.178715550188372
 21
-134.35028842544602
 72
1
 10
42.178715550188372
 20
-134.35028842544602
 11
36.521861300695946
 21
-134.35028842544602
 97
0
 75
0
 76
1
 98
0
  0
HATCH
  5
74
  8
color azul
 62
256
370
-1
  6
ByLayer
100
AcDbEntity
100
AcDbHatch
 10
0.0
 20
0.0
 30
0.0
210
0.0
220
0.0
230
1.0
  2
SOLID
 70
1
 71
0
 91
1
 92
1
 93
4
 72
2
 10
134.35028842544216
 20
-134.350288425446
 40
63.999999999999979
 50
175.51920121401778
 51
180.0
 73
1
 72
1
 10
70.350288425442159
 20
-134.35028842544602
 11
109.35028842544216
 21
-134.35028842544602
 72
1
 10
109.35028842544216
 20
-134.35028842544602
 11
95.672129213814742
 21
-129.35028842544523
 72
1
 10
95.672129213814742
 20
-129.35028842544523
 11
70.545899861645012
 21
-129.3502884254452
 97
0
 75
0
 76
1
 98
0
  0
HATCH
  5
75
  8
color azul
 62
256
370
-1
  6
ByLayer
100
AcDbEntity
100
AcDbHatch
 10
0.0
 20
0.0
 30
0.0
210
0.0
220
0.0
230
1.0
  2
SOLID
 70
1
 71
0
 91
1
 92
1
 93
4
 72
2
 10
134.35028842544216
 20
-45.350288425446024
 40
30.000000000000046
 50
89.999999999999986
 51
99.594068226860628
 73
1
 72
1
 10
129.35028842544216
 20
-15.769889509947916
 11
129.35028842544239
 21
-25.985371694408968
 72
1
 10
129.35028842544239
 20
-25.985371694408968
 11
134.35028842544216
 21
-33.350288425446024
 72
1
 10
134.35028842544216
 20
-33.350288425446024
 11
134.35028842544216
 21
-15.350288425446024
 97
0
 75
0
 76
1
 98
0
  0
HATCH
  5
76
  8
color azul
 62
256
370
-1
  6
ByLayer
100
AcDbEntity
100
AcDbHatch
 10
0.0
 20
0.0
 30
0.0
210
0.0
220
0.0
230
1.0
  2
SOLID
 70
1
 71
0
 91
1
 92
1
 93
4
 72
2
 10
134.35028842544216
 20
-33.350288425446024
 40
30.000000000000046
 50
90.0
 51
99.594068226860642
 73
0
 72
1
 10
129.35028842544239
 20
-62.930687340944132
 11
129.35028842544239
 21
-52.71520515648308
 72
1
 10
129.35028842544239
 20
-52.71520515648308
 11
134.35028842544216
 21
-45.350288425446024
 72
1
 10
134.35028842544216
 20
-45.350288425446024
 11
134.35028842544216
 21
-63.350288425446024
 97
0
 75
0
 76
1
 98
0
  0
HATCH
  5
77
  8
color azul
 62
256
370
-1
  6
ByLayer
100
AcDbEntity
100
AcDbHatch
 10
0.0
 20
0.0
 30
0.0
210
0.0
220
0.0
230
1.0
  2
SOLID
 70
1
 71
0
 91
1
 92
1
 93
3
 72
1
 10
134.35028842544216
 20
-36.521861300699811
 11
131.52186130069595
 21
-39.350288425446024
 72
1
 10
131.52186130069595
 20
-39.350288425446024
 11
134.35028842544216
 21
-42.178715550192237
 72
1
 10
134.35028842544216
 20
-42.178715550192237
 11
134.35028842544216
 21
-36.521861300699811
 97
0
 75
0
 76
1
 98
0
  0
HATCH
  5
78
  8
color azul
 62
256
370
-1
  6
ByLayer
100
AcDbEntity
100
AcDbHatch
 10
0.0
 20
0.0
 30
0.0
210
0.0
220
0.0
230
1.0
  2
SOLID
 70
1
 71
0
 91
1
 92
1
 93
3
 72
1
 10
134.35028842544216
 20
-36.521861300699811
 11
131.52186130069595
 21
-39.350288425446024
 72
1
 10
131.52186130069595
 20
-39.350288425446024
 11
134.35028842544216
 21
-42.178715550192237
 72
1
 10
134.35028842544216
 20
-42.178715550192237
 11
134.35028842544216
 21
-36.521861300699811
 97
0
 75
0
 76
1
 98
0
  0
HATCH
  5
79
  8
color azul
 62
256
370
-1
  6
ByLayer
100
AcDbEntity
100
AcDbHatch
 10
0.0
 20
0.0
 30
0.0
210
0.0
220
0.0
230
1.0
  2
SOLID
 70
1
 71
0
 91
1
 92
1
 93
4
 72
2
 10
134.35028842544216
 20
-134.35028842544605
 40
63.999999999999979
 50
265.51920121401781
 51
270.0
 73
0
 72
1
 10
134.35028842544216
 20
-70.350288425446024
 11
134.35028842544216
 21
-109.35028842544602
 72
1
 10
134.35028842544216
 20
-109.35028842544602
 11
129.35028842544148
 21
-95.672129213818607
 72
1
 10
129.35028842544148
 20
-95.672129213818607
 11
129.35028842544125
 21
-70.545899861648877
 97
0
 75
0
 76
1
 98
0
  0
HATCH
  5
7A
  8
color azul
 62
256
370
-1
  6
ByLayer
100
AcDbEntity
100
AcDbHatch
 10
0.0
 20
0.0
 30
0.0
210
0.0
220
0.0
230
1.0
  2
SOLID
 70
1
 71
0
 91
1
 92
1
 93
4
 72
2
 10
0.0
 20
-101.0
 40
30.000000000000046
 50
270.0
 51
279.59406822686066
 73
0
 72
1
 10
5.0
 20
-71.419601084501892
 11
5.0
 21
-81.635083268962944
 72
1
 10
5.0
 20
-81.635083268962944
 11
0.0
 21
-89.0
 72
1
 10
0.0
 20
-89.0
 11
0.0
 21
-71.0
 97
0
 75
0
 76
1
 98
0
  0
HATCH
  5
7B
  8
color azul
 62
256
370
-1
  6
ByLayer
100
AcDbEntity
100
AcDbHatch
 10
0.0
 20
0.0
 30
0.0
210
0.0
220
0.0
230
1.0
  2
SOLID
 70
1
 71
0
 91
1
 92
1
 93
4
 72
2
 10
0.0
 20
-89.0
 40
30.000000000000046
 50
270.0
 51
279.59406822686066
 73
1
 72
1
 10
4.9999999999997726
 20
-118.58039891549811
 11
4.9999999999997726
 21
-108.36491673103706
 72
1
 10
4.9999999999997726
 20
-108.36491673103706
 11
0.0
 21
-101.0
 72
1
 10
0.0
 20
-101.0
 11
0.0
 21
-119.0
 97
0
 75
0
 76
1
 98
0
  0
HATCH
  5
7C
  8
color azul
 62
256
370
-1
  6
ByLayer
100
AcDbEntity
100
AcDbHatch
 10
0.0
 20
0.0
 30
0.0
210
0.0
220
0.0
230
1.0
  2
SOLID
 70
1
 71
0
 91
1
 92
1
 93
3
 72
1
 10
0.0
 20
-92.171572875253787
 11
2.8284271247462129
 21
-95.0
 72
1
 10
2.8284271247462129
 20
-95.0
 11
0.0
 21
-97.828427124746213
 72
1
 10
0.0
 20
-97.828427124746213
 11
0.0
 21
-92.171572875253787
 97
0
 75
0
 76
1
 98
0
  0
HATCH
  5
7D
  8
color azul
 62
256
370
-1
  6
ByLayer
100
AcDbEntity
100
AcDbHatch
 10
0.0
 20
0.0
 30
0.0
210
0.0
220
0.0
230
1.0
  2
SOLID
 70
1
 71
0
 91
1
 92
1
 93
3
 72
1
 10
0.0
 20
-92.171572875253787
 11
2.8284271247462129
 21
-95.0
 72
1
 10
2.8284271247462129
 20
-95.0
 11
0.0
 21
-97.828427124746213
 72
1
 10
0.0
 20
-97.828427124746213
 11
0.0
 21
-92.171572875253787
 97
0
 75
0
 76
1
 98
0
  0
HATCH
  5
7E
  8
color azul
 62
256
370
-1
  6
ByLayer
100
AcDbEntity
100
AcDbHatch
 10
0.0
 20
0.0
 30
0.0
210
0.0
220
0.0
230
1.0
  2
SOLID
 70
1
 71
0
 91
1
 92
1
 93
6
 72
1
 10
134.35028842544216
 20
0.0
 11
127.35028842544216
 21
-0.0000000000000568
 72
1
 10
127.35028842544216
 20
-0.0000000000000568
 11
126.03537263284034
 21
-3.4441508912858012
 72
1
 10
126.03537263284034
 20
-3.4441508912858012
 11
129.4005409571364
 21
-4.9497474683058158
 72
1
 10
129.4005409571364
 20
-4.9497474683058158
 11
130.90613753415664
 21
-8.3149157926016528
 72
1
 10
130.90613753415664
 20
-8.3149157926016528
 11
134.35028842544216
 21
-6.9999999999999432
 72
1
 10
134.35028842544216
 20
-6.9999999999999432
 11
134.35028842544216
 21
0.0
 97
0
 75
0
 76
1
 98
0
  0
HATCH
  5
7F
  8
color azul
 62
256
370
-1
  6
ByLayer
100
AcDbEntity
100
AcDbHatch
 10
0.0
 20
0.0
 30
0.0
210
0.0
220
0.0
230
1.0
  2
SOLID
 70
1
 71
0
 91
1
 92
1
 93
6
 72
1
 10
0.0
 20
-134.35028842544602
 11
7.0
 21
-134.35028842544602
 72
1
 10
7.0
 20
-134.35028842544602
 11
8.3149157926018233
 21
-130.90613753416022
 72
1
 10
8.3149157926018233
 20
-130.90613753416022
 11
4.949747468305759
 21
-129.40054095714021
 72
1
 10
4.949747468305759
 20
-129.40054095714021
 11
3.444150891285517
 21
-126.03537263284437
 72
1
 10
3.444150891285517
 20
-126.03537263284437
 11
0.0
 21
-127.35028842544608
 72
1
 10
0.0
 20
-127.35028842544608
 11
0.0
 21
-134.35028842544602
 97
0
 75
0
 76
1
 98
0
  0
ENDBLK
  5
80
100
AcDbEntity
  8
0
100
AcDbBlockEnd
  0
ENDSEC
  0
SECTION
  2
ENTITIES
  0
LWPOLYLINE
  5
81
  8
0
 62
256
370
-1
  6
ByLayer
100
AcDbEntity
100
AcDbPolyline
 90
11
 70
0
 10
312.5
 20
-75.0
 30
0.0
 10
312.5
 20
-50.0
 30
0.0
 10
316.01162579629033
 20
-57.345864952741849
 30
0.0
 10
322.06708580912732
 20
-51.903011687217834
 30
0.0
 10
322.50026419435289
 20
-60.033546978554192
 30
0.0
 10
330.17766952966372
 20
-57.322330470336325
 30
0.0
 10
327.46645302144589
 20
-64.999735805647148
 30
0.0
 10
335.59698831278217
 20
-65.432914190872765
 30
0.0
 10
330.15413504725814
 20
-71.488374203709697
 30
0.0
 10
337.5
 20
-75.0
 30
0.0
 10
312.5
 20
-75.0
 30
0.0
  0
LWPOLYLINE
  5
82
  8
0
 62
256
370
-1
  6
ByLayer
100
AcDbEntity
100
AcDbPolyline
 90
6
 70
0
 10
321.27306023066149
 20
-36.99956034215937
 30
0.0
 10
330.92064142619711
 20
-13.708238975801407
 30
0.0
 42
-0.0504160078779484
 10
342.81445938480641
 20
-18.634819682654012
 30
0.0
 10
333.16687818927062
 20
-41.92614104901206
 30
0.0
 10
322.06708580912732
 20
-51.903011687217834
 30
0.0
 10
321.27306023066149
 20
-36.99956034215937
 30
0.0
  0
LWPOLYLINE
  5
83
  8
0
 62
256
370
-1
  6
ByLayer
100
AcDbEntity
100
AcDbPolyline
 90
6
 70
0
 10
335.14738946424177
 20
-43.249476375106028
 30
0.0
 10
352.97379507383425
 20
-25.4230707655136
 30
0.0
 42
-0.0504160078779484
 10
362.0769292344865
 20
-34.526204926165939
 30
0.0
 10
344.25052362489396
 20
-52.352610535758316
 30
0.0
 10
330.17766952966372
 20
-57.322330470336318
 30
0.0
 10
335.14738946424177
 20
-43.249476375106028
 30
0.0
  0
LWPOLYLINE
  5
84
  8
0
 62
256
370
-1
  6
ByLayer
100
AcDbEntity
100
AcDbPolyline
 90
6
 70
0
 10
345.5738589509881
 20
-54.333121810729395
 30
0.0
 10
368.86518031734602
 20
-44.685540615193702
 30
0.0
 42
-0.0504160078779486
 10
373.79176102419865
 20
-56.579358573802992
 30
0.0
 10
350.50043965784062
 20
-66.226939769338642
 30
0.0
 10
335.59698831278217
 20
-65.432914190872765
 30
0.0
 10
345.5738589509881
 20
-54.333121810729395
 30
0.0
  0
LWPOLYLINE
  5
85
  8
0
 62
256
370
-1
  6
ByLayer
100
AcDbEntity
100
AcDbPolyline
 90
5
 70
0
 10
312.50000000000006
 20
-10.999999999999993
 30
0.0
 42
-0.0251920060027827
 10
318.93688789504819
 20
-11.324522190826222
 30
0.0
 10
318.93688789504813
 20
-36.534866772275734
 30
0.0
 10
312.5
 20
-49.999999999999993
 30
0.0
 10
312.5
 20
-11.0
 30
0.0
  0
LWPOLYLINE
  5
86
  8
0
 62
256
370
-1
  6
ByLayer
100
AcDbEntity
100
AcDbPolyline
 90
5
 70
0
 10
376.17547780917374
 20
-68.563112104951813
 30
0.0
 42
-0.0251920060027842
 10
376.5
 20
-75.000000000000412
 30
0.0
 10
337.5
 20
-75.000000000000014
 30
0.0
 10
350.96513322772432
 20
-68.563112104951912
 30
0.0
 10
376.1754778091738
 20
-68.563112104951927
 30
0.0
  0
LWPOLYLINE
  5
87
  8
0
 62
256
370
-1
  6
ByLayer
100
AcDbEntity
100
AcDbPolyline
 90
6
 70
0
 10
359.79060611783467
 20
-20.638326070299847
 30
0.0
 42
0.0839202169003836
 10
366.86167392970009
 20
-27.709393882165312
 30
0.0
 10
374.08511065542285
 20
-20.485957156442623
 30
0.0
 10
375.75735931288074
 20
-11.742640687119284
 30
0.0
 10
367.01404284355738
 20
-13.414889344577176
 30
0.0
 10
359.79060611783467
 20
-20.638326070299858
 30
0.0
  0
LWPOLYLINE
  5
88
  8
0
 62
256
370
-1
  6
ByLayer
100
AcDbEntity
100
AcDbPolyline
 90
6
 70
0
 10
400.20939388216533
 20
5.6383260702998479
 30
0.0
 42
0.0839202169003835
 10
393.13832607029991
 20
12.709393882165301
 30
0.0
 10
385.91488934457715
 20
5.4859571564426197
 30
0.0
 10
384.24264068711926
 20
-3.2573593128807143
 30
0.0
 10
392.98595715644262
 20
-1.5851106554228229
 30
0.0
 10
400.20939388216533
 20
5.6383260702998594
 30
0.0
  0
LWPOLYLINE
  5
89
  8
0
 62
256
370
-1
  6
ByLayer
100
AcDbEntity
100
AcDbPolyline
 90
5
 70
0
 10
378.0
 20
-9.5000000000000142
 30
0.0
 10
378.0
 20
-5.4999999999999982
 30
0.0
 10
382.0
 20
-5.4999999999999822
 30
0.0
 10
382.0
 20
-9.5000000000000071
 30
0.0
 10
378.0
 20
-9.5000000000000142
 30
0.0
  0
LWPOLYLINE
  5
8A
  8
0
 62
256
370
-1
  6
ByLayer
100
AcDbEntity
100
AcDbPolyline
 90
17
 70
0
 10
397.41344560986454
 20
-39.592201188381097
 30
0.0
 10
398.5
 20
-35.000000000000014
 30
0.0
 10
397.41344560986454
 20
-30.407798811618932
 30
0.0
 10
401.42893218813452
 20
-27.928932188134553
 30
0.0
 10
403.90779881161893
 20
-23.913445609864567
 30
0.0
 10
408.5
 20
-25.000000000000014
 30
0.0
 10
413.09220118838107
 20
-23.913445609864567
 30
0.0
 10
415.57106781186548
 20
-27.928932188134553
 30
0.0
 10
419.58655439013546
 20
-30.407798811618946
 30
0.0
 10
418.5
 20
-35.000000000000014
 30
0.0
 10
419.58655439013546
 20
-39.592201188381082
 30
0.0
 10
415.57106781186548
 20
-42.071067811865476
 30
0.0
 10
413.09220118838107
 20
-46.086554390135461
 30
0.0
 10
408.5
 20
-45.000000000000014
 30
0.0
 10
403.90779881161893
 20
-46.086554390135461
 30
0.0
 10
401.42893218813452
 20
-42.07106781186549
 30
0.0
 10
397.41344560986454
 20
-39.592201188381097
 30
0.0
  0
LWPOLYLINE
  5
8B
  8
0
 62
256
370
-1
  6
ByLayer
100
AcDbEntity
100
AcDbPolyline
 90
6
 70
0
 10
401.79946907484504
 20
-5.757857716626809
 30
0.0
 42
0.0839202169003838
 10
392.56067374973219
 20
-9.5846920402776998
 30
0.0
 10
396.46996953534614
 20
-19.022566945234914
 30
0.0
 10
403.90779881161893
 20
-23.913445609864567
 30
0.0
 10
405.70876486045898
 20
-15.195732621584035
 30
0.0
 10
401.79946907484504
 20
-5.7578577166268161
 30
0.0
  0
LWPOLYLINE
  5
8C
  8
0
 62
256
370
-1
  6
ByLayer
100
AcDbEntity
100
AcDbPolyline
 90
6
 70
0
 10
383.08469204027767
 20
-19.060673749732214
 30
0.0
 42
0.0839202169003836
 10
379.2578577166268
 20
-28.299469074845053
 30
0.0
 10
388.695732621584
 20
-32.208764860459013
 30
0.0
 10
397.41344560986454
 20
-30.407798811618932
 30
0.0
 10
392.52256694523493
 20
-22.969969535346173
 30
0.0
 10
383.08469204027767
 20
-19.060673749732203
 30
0.0
  0
LWPOLYLINE
  5
8D
  8
0
 62
256
370
-1
  6
ByLayer
100
AcDbEntity
100
AcDbPolyline
 90
6
 70
0
 10
379.2578577166268
 20
-41.700530925154958
 30
0.0
 42
0.0839202169003836
 10
383.08469204027767
 20
-50.939326250267797
 30
0.0
 10
392.52256694523487
 20
-47.030030464653876
 30
0.0
 10
397.41344560986454
 20
-39.592201188381082
 30
0.0
 10
388.695732621584
 20
-37.79123513954103
 30
0.0
 10
379.2578577166268
 20
-41.700530925154979
 30
0.0
  0
LWPOLYLINE
  5
8E
  8
0
 62
256
370
-1
  6
ByLayer
100
AcDbEntity
100
AcDbPolyline
 90
6
 70
0
 10
392.56067374973219
 20
-60.415307959722305
 30
0.0
 42
0.0839202169003837
 10
401.79946907484504
 20
-64.242142283373212
 30
0.0
 10
405.70876486045898
 20
-54.804267378416014
 30
0.0
 10
403.90779881161893
 20
-46.086554390135461
 30
0.0
 10
396.46996953534614
 20
-50.977433054765115
 30
0.0
 10
392.56067374973219
 20
-60.415307959722313
 30
0.0
  0
LWPOLYLINE
  5
8F
  8
0
 62
256
370
-1
  6
ByLayer
100
AcDbEntity
100
AcDbPolyline
 90
6
 70
0
 10
415.20053092515496
 20
-64.242142283373241
 30
0.0
 42
0.0839202169003839
 10
424.43932625026781
 20
-60.415307959722341
 30
0.0
 10
420.53003046465386
 20
-50.977433054765115
 30
0.0
 10
413.09220118838107
 20
-46.086554390135461
 30
0.0
 10
411.29123513954102
 20
-54.804267378416
 30
0.0
 10
415.20053092515496
 20
-64.242142283373212
 30
0.0
  0
LWPOLYLINE
  5
90
  8
0
 62
256
370
-1
  6
ByLayer
100
AcDbEntity
100
AcDbPolyline
 90
6
 70
0
 10
433.91530795972227
 20
-50.93932625026784
 30
0.0
 42
0.0839202169003837
 10
437.7421422833732
 20
-41.700530925155
 30
0.0
 10
428.304267378416
 20
-37.791235139541016
 30
0.0
 10
419.58655439013546
 20
-39.592201188381097
 30
0.0
 10
424.47743305476507
 20
-47.030030464653862
 30
0.0
 10
433.91530795972233
 20
-50.93932625026784
 30
0.0
  0
LWPOLYLINE
  5
91
  8
0
 62
256
370
-1
  6
ByLayer
100
AcDbEntity
100
AcDbPolyline
 90
6
 70
0
 10
437.7421422833732
 20
-28.299469074845042
 30
0.0
 42
0.0839202169003839
 10
433.91530795972227
 20
-19.060673749732178
 30
0.0
 10
424.47743305476513
 20
-22.969969535346152
 30
0.0
 10
419.58655439013546
 20
-30.40779881161896
 30
0.0
 10
428.304267378416
 20
-32.208764860459013
 30
0.0
 10
437.74214228337314
 20
-28.299469074845035
 30
0.0
  0
LWPOLYLINE
  5
92
  8
0
 62
256
370
-1
  6
ByLayer
100
AcDbEntity
100
AcDbPolyline
 90
6
 70
0
 10
424.43932625026781
 20
-9.5846920402776998
 30
0.0
 42
0.0839202169003838
 10
415.20053092515496
 20
-5.7578577166268055
 30
0.0
 10
411.29123513954102
 20
-15.195732621584014
 30
0.0
 10
413.09220118838107
 20
-23.913445609864574
 30
0.0
 10
420.53003046465386
 20
-19.022566945234921
 30
0.0
 10
424.43932625026781
 20
-9.5846920402777158
 30
0.0
  0
LWPOLYLINE
  5
93
  8
0
 62
256
370
-1
  6
ByLayer
100
AcDbEntity
100
AcDbPolyline
 90
7
 70
0
 10
439.1850842073984
 20
-71.555849108714199
 30
0.0
 10
442.55025253169418
 20
-70.050252531694156
 30
0.0
 10
444.0558491087142
 20
-66.685084207398418
 30
0.0
 10
447.5
 20
-68.0
 30
0.0
 10
447.5
 20
-75.0
 30
0.0
 10
440.5
 20
-75.0
 30
0.0
 10
439.1850842073984
 20
-71.555849108714199
 30
0.0
  0
LWPOLYLINE
  5
94
  8
0
 62
256
370
-1
  6
ByLayer
100
AcDbEntity
100
AcDbPolyline
 90
11
 70
0
 10
447.5
 20
59.999999999999964
 30
0.0
 10
422.5
 20
59.999999999999972
 30
0.0
 10
429.84586495274186
 20
56.488374203709633
 30
0.0
 10
424.40301168721783
 20
50.43291419087263
 30
0.0
 10
432.53354697855423
 20
49.999735805647084
 30
0.0
 10
429.82233047033634
 20
42.322330470336283
 30
0.0
 10
437.49973580564716
 20
45.033546978554121
 30
0.0
 10
437.93291419087279
 20
36.903011687217827
 30
0.0
 10
443.98837420370967
 20
42.345864952741856
 30
0.0
 10
447.5
 20
34.999999999999922
 30
0.0
 10
447.5
 20
59.999999999999964
 30
0.0
  0
LWPOLYLINE
  5
95
  8
0
 62
256
370
-1
  6
ByLayer
100
AcDbEntity
100
AcDbPolyline
 90
6
 70
0
 10
409.49956034215938
 20
51.226939769338543
 30
0.0
 10
386.20823897580141
 20
41.57935857380285
 30
0.0
 42
0.0504160078779481
 10
391.13481968265398
 20
29.685540615193712
 30
0.0
 10
414.42614104901207
 20
39.333121810729381
 30
0.0
 10
424.40301168721783
 20
50.43291419087263
 30
0.0
 10
409.49956034215938
 20
51.226939769338543
 30
0.0
  0
LWPOLYLINE
  5
96
  8
0
 62
256
370
-1
  6
ByLayer
100
AcDbEntity
100
AcDbPolyline
 90
6
 70
0
 10
415.74947637510604
 20
37.352610535758267
 30
0.0
 10
397.92307076551356
 20
19.526204926165725
 30
0.0
 42
0.0504160078779489
 10
407.02620492616592
 20
10.423070765513447
 30
0.0
 10
424.85261053575829
 20
28.249476375105981
 30
0.0
 10
429.82233047033628
 20
42.322330470336283
 30
0.0
 10
415.74947637510604
 20
37.352610535758267
 30
0.0
  0
LWPOLYLINE
  5
97
  8
0
 62
256
370
-1
  6
ByLayer
100
AcDbEntity
100
AcDbPolyline
 90
6
 70
0
 10
426.83312181072938
 20
26.926141049011861
 30
0.0
 10
417.1855406151937
 20
3.6348196826539834
 30
0.0
 42
0.0504160078779487
 10
429.07935857380295
 20
-1.2917610241986659
 30
0.0
 10
438.72693976933863
 20
21.999560342159349
 30
0.0
 10
437.93291419087279
 20
36.903011687217827
 30
0.0
 10
426.83312181072938
 20
26.926141049011861
 30
0.0
  0
LWPOLYLINE
  5
98
  8
0
 62
256
370
-1
  6
ByLayer
100
AcDbEntity
100
AcDbPolyline
 90
5
 70
0
 10
383.5
 20
59.999999999999886
 30
0.0
 42
0.0251920060027817
 10
383.8245221908262
 20
53.563112104952026
 30
0.0
 10
409.03486677227573
 20
53.56311210495187
 30
0.0
 10
422.5
 20
59.999999999999972
 30
0.0
 10
383.5
 20
59.999999999999986
 30
0.0
  0
LWPOLYLINE
  5
99
  8
0
 62
256
370
-1
  6
ByLayer
100
AcDbEntity
100
AcDbPolyline
 90
5
 70
0
 10
441.06311210495187
 20
-3.6754778091738198
 30
0.0
 42
0.0251920060027826
 10
447.5
 20
-4.0000000000000355
 30
0.0
 10
447.5
 20
34.999999999999922
 30
0.0
 10
441.06311210495193
 20
21.534866772275677
 30
0.0
 10
441.06311210495187
 20
-3.6754778091738913
 30
0.0
  0
LWPOLYLINE
  5
9A
  8
0
 62
256
370
-1
  6
ByLayer
100
AcDbEntity
100
AcDbPolyline
 90
17
 70
0
 10
347.90779881161887
 20
9.9134456098645387
 30
0.0
 10
352.5
 20
11.0
 30
0.0
 10
357.09220118838107
 20
9.9134456098645387
 30
0.0
 10
359.57106781186542
 20
13.92893218813451
 30
0.0
 10
363.5865543901354
 20
16.407798811618932
 30
0.0
 10
362.5
 20
21.0
 30
0.0
 10
363.58655439013546
 20
25.592201188381068
 30
0.0
 10
359.57106781186542
 20
28.071067811865476
 30
0.0
 10
357.09220118838107
 20
32.086554390135461
 30
0.0
 10
352.5
 20
31.0
 30
0.0
 10
347.90779881161893
 20
32.086554390135461
 30
0.0
 10
345.42893218813452
 20
28.071067811865476
 30
0.0
 10
341.41344560986454
 20
25.592201188381068
 30
0.0
 10
342.5
 20
21.000000000000014
 30
0.0
 10
341.41344560986454
 20
16.407798811618932
 30
0.0
 10
345.42893218813452
 20
13.928932188134524
 30
0.0
 10
347.90779881161887
 20
9.9134456098645387
 30
0.0
  0
LWPOLYLINE
  5
9B
  8
0
 62
256
370
-1
  6
ByLayer
100
AcDbEntity
100
AcDbPolyline
 90
6
 70
0
 10
381.7421422833732
 20
14.299469074844982
 30
0.0
 42
-0.0839202169003839
 10
377.91530795972227
 20
5.0606737497321141
 30
0.0
 10
368.47743305476507
 20
8.9699695353461379
 30
0.0
 10
363.5865543901354
 20
16.407798811618932
 30
0.0
 10
372.30426737841594
 20
18.208764860458984
 30
0.0
 10
381.7421422833732
 20
14.299469074845035
 30
0.0
  0
LWPOLYLINE
  5
9C
  8
0
 62
256
370
-1
  6
ByLayer
100
AcDbEntity
100
AcDbPolyline
 90
6
 70
0
 10
368.43932625026781
 20
-4.4153079597223304
 30
0.0
 42
-0.0839202169003837
 10
359.20053092515496
 20
-8.2421422833732141
 30
0.0
 10
355.29123513954096
 20
1.1957326215839998
 30
0.0
 10
357.09220118838107
 20
9.9134456098645387
 30
0.0
 10
364.53003046465381
 20
5.0225669452349138
 30
0.0
 10
368.43932625026781
 20
-4.415307959722341
 30
0.0
  0
LWPOLYLINE
  5
9D
  8
0
 62
256
370
-1
  6
ByLayer
100
AcDbEntity
100
AcDbPolyline
 90
6
 70
0
 10
345.79946907484504
 20
-8.2421422833731945
 30
0.0
 42
-0.0839202169003837
 10
336.56067374973219
 20
-4.4153079597222789
 30
0.0
 10
340.46996953534614
 20
5.0225669452348711
 30
0.0
 10
347.90779881161893
 20
9.9134456098645387
 30
0.0
 10
349.70876486045898
 20
1.1957326215839856
 30
0.0
 10
345.79946907484504
 20
-8.2421422833731981
 30
0.0
  0
LWPOLYLINE
  5
9E
  8
0
 62
256
370
-1
  6
ByLayer
100
AcDbEntity
100
AcDbPolyline
 90
6
 70
0
 10
327.08469204027773
 20
5.0606737497321763
 30
0.0
 42
-0.0839202169003838
 10
323.2578577166268
 20
14.299469074845044
 30
0.0
 10
332.695732621584
 20
18.208764860458999
 30
0.0
 10
341.41344560986454
 20
16.407798811618932
 30
0.0
 10
336.52256694523487
 20
8.9699695353461379
 30
0.0
 10
327.08469204027773
 20
5.0606737497321888
 30
0.0
  0
LWPOLYLINE
  5
9F
  8
0
 62
256
370
-1
  6
ByLayer
100
AcDbEntity
100
AcDbPolyline
 90
6
 70
0
 10
323.25785771662675
 20
27.700530925154965
 30
0.0
 42
-0.0839202169003837
 10
327.08469204027762
 20
36.939326250267811
 30
0.0
 10
336.52256694523493
 20
33.030030464653862
 30
0.0
 10
341.41344560986454
 20
25.592201188381068
 30
0.0
 10
332.69573262158406
 20
23.791235139541016
 30
0.0
 10
323.2578577166268
 20
27.700530925154951
 30
0.0
  0
LWPOLYLINE
  5
A0
  8
0
 62
256
370
-1
  6
ByLayer
100
AcDbEntity
100
AcDbPolyline
 90
6
 70
0
 10
336.56067374973219
 20
46.415307959722277
 30
0.0
 42
-0.0839202169003838
 10
345.79946907484504
 20
50.24214228337317
 30
0.0
 10
349.70876486045898
 20
40.804267378416
 30
0.0
 10
347.90779881161893
 20
32.086554390135461
 30
0.0
 10
340.46996953534614
 20
36.977433054765072
 30
0.0
 10
336.56067374973219
 20
46.415307959722327
 30
0.0
  0
LWPOLYLINE
  5
A1
  8
0
 62
256
370
-1
  6
ByLayer
100
AcDbEntity
100
AcDbPolyline
 90
6
 70
0
 10
359.20053092515496
 20
50.242142283373191
 30
0.0
 42
-0.0839202169003837
 10
368.43932625026781
 20
46.415307959722305
 30
0.0
 10
364.53003046465386
 20
36.977433054765129
 30
0.0
 10
357.09220118838107
 20
32.086554390135461
 30
0.0
 10
355.29123513954102
 20
40.804267378416
 30
0.0
 10
359.20053092515496
 20
50.242142283373141
 30
0.0
  0
LWPOLYLINE
  5
A2
  8
0
 62
256
370
-1
  6
ByLayer
100
AcDbEntity
100
AcDbPolyline
 90
6
 70
0
 10
377.91530795972227
 20
36.939326250267825
 30
0.0
 42
-0.0839202169003837
 10
381.7421422833732
 20
27.700530925154982
 30
0.0
 10
372.304267378416
 20
23.791235139541016
 30
0.0
 10
363.58655439013546
 20
25.592201188381068
 30
0.0
 10
368.47743305476507
 20
33.030030464653848
 30
0.0
 10
377.91530795972233
 20
36.939326250267811
 30
0.0
  0
LWPOLYLINE
  5
A3
  8
0
 62
256
370
-1
  6
ByLayer
100
AcDbEntity
100
AcDbPolyline
 90
7
 70
0
 10
315.94415089128603
 20
51.685084207398404
 30
0.0
 10
317.44974746830587
 20
55.050252531694184
 30
0.0
 10
320.81491579260154
 20
56.555849108714199
 30
0.0
 10
319.49999999999983
 20
60.0
 30
0.0
 10
312.5
 20
60.0
 30
0.0
 10
312.5
 20
53.0
 30
0.0
 10
315.94415089128603
 20
51.685084207398404
 30
0.0
  0
LWPOLYLINE
  5
A4
  8
0
 62
256
370
-1
  6
ByLayer
100
AcDbEntity
100
AcDbPolyline
 90
5
 70
0
 10
376.08039891549811
 20
54.999999999999972
 30
0.0
 42
0.0418864903599039
 10
376.5
 20
59.999999999999822
 30
0.0
 10
358.5
 20
59.999999999999986
 30
0.0
 10
365.86491673103711
 20
55.000000000000028
 30
0.0
 10
376.08039891549805
 20
55.000000000000007
 30
0.0
  0
LWPOLYLINE
  5
A5
  8
0
 62
256
370
-1
  6
ByLayer
100
AcDbEntity
100
AcDbPolyline
 90
4
 70
0
 10
355.32842712474621
 20
59.999999999999979
 30
0.0
 10
352.5
 20
57.171572875253787
 30
0.0
 10
349.67157287525379
 20
59.999999999999986
 30
0.0
 10
355.32842712474621
 20
59.999999999999979
 30
0.0
  0
LWPOLYLINE
  5
A6
  8
0
 62
256
370
-1
  6
ByLayer
100
AcDbEntity
100
AcDbPolyline
 90
5
 70
0
 10
328.5
 20
59.999999999999822
 30
0.0
 42
0.0418864903599036
 10
328.91960108450189
 20
55.000000000000007
 30
0.0
 10
339.13508326896289
 20
54.999999999999986
 30
0.0
 10
346.5
 20
59.999999999999986
 30
0.0
 10
328.5
 20
59.999999999999979
 30
0.0
  0
LWPOLYLINE
  5
A7
  8
0
 62
256
370
-1
  6
ByLayer
100
AcDbEntity
100
AcDbPolyline
 90
5
 70
0
 10
407.50000000000006
 20
-72.171572875253872
 30
0.0
 10
404.67157287525384
 20
-75.000000000000057
 30
0.0
 10
407.50000000000006
 20
-72.171572875253872
 30
0.0
 10
410.32842712474627
 20
-75.000000000000057
 30
0.0
 10
407.50000000000006
 20
-72.171572875253872
 30
0.0
  0
LWPOLYLINE
  5
A8
  8
0
 62
256
370
-1
  6
ByLayer
100
AcDbEntity
100
AcDbPolyline
 90
7
 70
0
 10
413.50000000000006
 20
-75.000000000000071
 30
0.0
 10
420.86491673103717
 20
-70.000000000000099
 30
0.0
 10
413.50000000000006
 20
-75.000000000000071
 30
0.0
 10
431.50000000000006
 20
-75.000000000000099
 30
0.0
 42
0.0418864903599028
 10
431.08039891549817
 20
-70.000000000000128
 30
0.0
 10
420.86491673103717
 20
-70.000000000000099
 30
0.0
 10
431.08039891549811
 20
-70.000000000000085
 30
0.0
  0
LWPOLYLINE
  5
A9
  8
0
 62
256
370
-1
  6
ByLayer
100
AcDbEntity
100
AcDbPolyline
 90
5
 70
0
 10
317.49999999999983
 20
-3.5803989154981313
 30
0.0
 42
-0.0418864903599041
 10
312.5
 20
-4.000000000000032
 30
0.0
 10
312.5
 20
14.0
 30
0.0
 10
317.49999999999994
 20
6.6350832689628874
 30
0.0
 10
317.5
 20
-3.5803989154980513
 30
0.0
  0
LWPOLYLINE
  5
AA
  8
0
 62
256
370
-1
  6
ByLayer
100
AcDbEntity
100
AcDbPolyline
 90
4
 70
0
 10
312.5
 20
17.171572875253787
 30
0.0
 10
315.32842712474627
 20
20.0
 30
0.0
 10
312.5
 20
22.828427124746213
 30
0.0
 10
312.5
 20
17.171572875253787
 30
0.0
  0
LWPOLYLINE
  5
AB
  8
0
 62
256
370
-1
  6
ByLayer
100
AcDbEntity
100
AcDbPolyline
 90
5
 70
0
 10
312.5
 20
44.000000000000028
 30
0.0
 42
-0.0418864903599039
 10
317.49999999999983
 20
43.580398915498122
 30
0.0
 10
317.5
 20
33.364916731037113
 30
0.0
 10
312.5
 20
26.0
 30
0.0
 10
312.5
 20
44.0
 30
0.0
  0
LWPOLYLINE
  5
AC
  8
0
 62
256
370
-1
  6
ByLayer
100
AcDbEntity
100
AcDbPolyline
 90
7
 70
0
 10
401.50000000000006
 20
-75.000000000000071
 30
0.0
 10
394.13508326896294
 20
-70.000000000000071
 30
0.0
 10
401.50000000000006
 20
-75.000000000000071
 30
0.0
 10
383.5
 20
-75.000000000000057
 30
0.0
 42
-0.0418864903599036
 10
383.91960108450189
 20
-70.000000000000043
 30
0.0
 10
394.13508326896294
 20
-70.000000000000071
 30
0.0
 10
383.91960108450195
 20
-70.000000000000071
 30
0.0
  0
LWPOLYLINE
  5
AD
  8
0
 62
256
370
-1
  6
ByLayer
100
AcDbEntity
100
AcDbPolyline
 90
2
 70
0
 10
410.32842712474627
 20
-75.000000000000057
 30
0.0
 10
404.67157287525384
 20
-75.000000000000057
 30
0.0
  0
LWPOLYLINE
  5
AE
  8
0
 62
256
370
-1
  6
ByLayer
100
AcDbEntity
100
AcDbPolyline
 90
5
 70
0
 10
444.6715728752539
 20
-35.000000000000057
 30
0.0
 10
447.5
 20
-32.171572875253844
 30
0.0
 10
444.6715728752539
 20
-35.000000000000057
 30
0.0
 10
447.5
 20
-37.82842712474627
 30
0.0
 10
444.6715728752539
 20
-35.000000000000057
 30
0.0
  0
LWPOLYLINE
  5
AF
  8
0
 62
256
370
-1
  6
ByLayer
100
AcDbEntity
100
AcDbPolyline
 90
7
 70
0
 10
447.5
 20
-41.000000000000057
 30
0.0
 10
442.50000000000011
 20
-48.364916731037169
 30
0.0
 10
447.5
 20
-41.000000000000057
 30
0.0
 10
447.5
 20
-59.000000000000057
 30
0.0
 42
-0.0418864903599036
 10
442.50000000000017
 20
-58.580398915498151
 30
0.0
 10
442.50000000000011
 20
-48.364916731037169
 30
0.0
 10
442.50000000000011
 20
-58.580398915498108
 30
0.0
  0
LWPOLYLINE
  5
B0
  8
0
 62
256
370
-1
  6
ByLayer
100
AcDbEntity
100
AcDbPolyline
 90
7
 70
0
 10
447.5
 20
-29.000000000000057
 30
0.0
 10
442.5
 20
-21.635083268962944
 30
0.0
 10
447.5
 20
-29.000000000000057
 30
0.0
 10
447.5
 20
-11.0
 30
0.0
 42
0.0418864903599065
 10
442.49999999999989
 20
-11.419601084501871
 30
0.0
 10
442.5
 20
-21.635083268962944
 30
0.0
 10
442.50000000000011
 20
-11.419601084501945
 30
0.0
  0
LWPOLYLINE
  5
B1
  8
0
 62
256
370
-1
  6
ByLayer
100
AcDbEntity
100
AcDbPolyline
 90
2
 70
0
 10
447.5
 20
-37.82842712474627
 30
0.0
 10
447.5
 20
-32.171572875253844
 30
0.0
  0
ENDSEC
  0
SECTION
  2
OBJECTS
  0
DICTIONARY
  5
C
100
AcDbDictionary
280
0
281
1
  3
ACAD_GROUP
350
D
  3
ACAD_LAYOUT
350
1A
  3
ACAD_MLINESTYLE
350
17
  3
ACAD_PLOTSETTINGS
350
19
  3
ACAD_PLOTSTYLENAME
350
E
  3
AcDbVariableDictionary
350
B2
  0
DICTIONARY
  5
D
100
AcDbDictionary
280
0
281
1
  0
ACDBDICTIONARYWDFLT
  5
E
100
AcDbDictionary
281
1
  3
Normal
350
F
100
AcDbDictionaryWithDefault
340
F
  0
ACDBPLACEHOLDER
  5
F
  0
DICTIONARY
  5
17
100
AcDbDictionary
280
0
281
1
  3
Standard
350
18
  0
MLINESTYLE
  5
18
100
AcDbMlineStyle
  2
STANDARD
 70
0
  3

 62
256
 51
90.0
 52
90.0
 71
2
 49
0.5
 62
256
  6
BYLAYER
 49
-0.5
 62
256
  6
BYLAYER
  0
DICTIONARY
  5
19
100
AcDbDictionary
280
0
281
1
  0
DICTIONARY
  5
1A
100
AcDbDictionary
281
1
  3
Layout1
350
1E
  3
Layout2
350
26
  3
Model
350
22
  0
LAYOUT
  5
1E
100
AcDbPlotSettings
  1

  2
C:\Program Files\AutoCAD 2002\plotters\DWF ePlot (optimized for plotting).pc3
  4

  6

 40
0.0
 41
0.0
 42
0.0
 43
0.0
 44
0.0
 45
0.0
 46
0.0
 47
0.0
 48
0.0
 49
0.0
140
0.0
141
0.0
142
1.0
143
1.0
 70
688
 72
0
 73
0
 74
5
  7

 75
16
147
1.0
148
0.0
149
0.0
100
AcDbLayout
  1
Layout1
 70
1
 71
1
 10
0.0
 20
0.0
 11
420.0
 21
297.0
 12
0.0
 22
0.0
 32
0.0
 14
100000000000000000000.0
 24
100000000000000000000.0
 34
100000000000000000000.0
 15
-100000000000000000000.0
 25
-100000000000000000000.0
 35
-100000000000000000000.0
146
0.0
 13
0.0
 23
0.0
 33
0.0
 16
1.0
 26
0.0
 36
0.0
 17
0.0
 27
1.0
 37
0.0
 76
0
330
1B
  0
LAYOUT
  5
22
100
AcDbPlotSettings
  1

  2
C:\Program Files\AutoCAD 2002\plotters\DWF ePlot (optimized for plotting).pc3
  4

  6

 40
0.0
 41
0.0
 42
0.0
 43
0.0
 44
0.0
 45
0.0
 46
0.0
 47
0.0
 48
0.0
 49
0.0
140
0.0
141
0.0
142
1.0
143
1.0
 70
1712
 72
0
 73
0
 74
0
  7

 75
0
147
1.0
148
0.0
149
0.0
100
AcDbLayout
  1
Model
 70
1
 71
0
 10
0.0
 20
0.0
 11
12.0
 21
9.0
 12
0.0
 22
0.0
 32
0.0
 14
0.0
 24
0.0
 34
0.0
 15
0.0
 25
0.0
 35
0.0
146
0.0
 13
0.0
 23
0.0
 33
0.0
 16
1.0
 26
0.0
 36
0.0
 17
0.0
 27
1.0
 37
0.0
 76
0
330
1F
  0
LAYOUT
  5
26
100
AcDbPlotSettings
  1

  2
C:\Program Files\AutoCAD 2002\plotters\DWF ePlot (optimized for plotting).pc3
  4

  6

 40
0.0
 41
0.0
 42
0.0
 43
0.0
 44
0.0
 45
0.0
 46
0.0
 47
0.0
 48
0.0
 49
0.0
140
0.0
141
0.0
142
1.0
143
1.0
 70
688
 72
0
 73
0
 74
5
  7

 75
16
147
1.0
148
0.0
149
0.0
100
AcDbLayout
  1
Layout2
 70
1
 71
2
 10
0.0
 20
0.0
 11
12.0
 21
9.0
 12
0.0
 22
0.0
 32
0.0
 14
0.0
 24
0.0
 34
0.0
 15
0.0
 25
0.0
 35
0.0
146
0.0
 13
0.0
 23
0.0
 33
0.0
 16
1.0
 26
0.0
 36
0.0
 17
0.0
 27
1.0
 37
0.0
 76
0
330
23
  0
DICTIONARY
  5
B2
100
AcDbDictionary
281
1
  3
DIMASSOC
350
B4
  3
HIDETEXT
350
B3
  0
DICTIONARYVAR
  5
B3
100
DictionaryVariables
280
0
  1
2
  0
DICTIONARYVAR
  5
B4
100
DictionaryVariables
280
0
  1
1
  0
ENDSEC
  0
EOF
